0
SECTION
2
HEADER
9
$INSUNITS
70
4
9
$ACADVER
1
AC1014
9
$HANDSEED
5
FFFF
0
ENDSEC
0
SECTION
2
TABLES
0
TABLE
2
VPORT
5
8
100
AcDbSymbolTable
0
ENDTAB
0
TABLE
2
LTYPE
5
5
100
AcDbSymbolTable
0
LTYPE
5
14
100
AcDbSymbolTableRecord
100
AcDbLinetypeTableRecord
2
BYBLOCK
70
0
0
LTYPE
5
15
100
AcDbSymbolTableRecord
100
AcDbLinetypeTableRecord
2
BYLAYER
70
0
0
ENDTAB
0
TABLE
2
LAYER
5
2
100
AcDbSymbolTable
70
2
0
LAYER
5
50
100
AcDbSymbolTableRecord
100
AcDbLayerTableRecord
2
0
70
0
6
CONTINUOUS
0
ENDTAB
0
TABLE
2
STYLE
5
3
100
AcDbSymbolTable
70
1
0
STYLE
5
11
100
AcDbSymbolTableRecord
100
AcDbTextStyleTableRecord
2
STANDARD
70
0
0
ENDTAB
0
TABLE
2
VIEW
5
6
100
AcDbSymbolTable
70
0
0
ENDTAB
0
TABLE
2
UCS
5
7
100
AcDbSymbolTable
70
0
0
ENDTAB
0
TABLE
2
APPID
5
9
100
AcDbSymbolTable
70
2
0
APPID
5
12
100
AcDbSymbolTableRecord
100
AcDbRegAppTableRecord
2
ACAD
70
0
0
ENDTAB
0
TABLE
2
DIMSTYLE
5
A
100
AcDbSymbolTable
70
1
0
ENDTAB
0
TABLE
2
BLOCK_RECORD
5
1
100
AcDbSymbolTable
70
1
0
BLOCK_RECORD
5
1F
100
AcDbSymbolTableRecord
100
AcDbBlockTableRecord
2
*MODEL_SPACE
0
BLOCK_RECORD
5
1B
100
AcDbSymbolTableRecord
100
AcDbBlockTableRecord
2
*PAPER_SPACE
0
ENDTAB
0
ENDSEC
0
SECTION
2
BLOCKS
0
BLOCK
5
20
100
AcDbEntity
100
AcDbBlockBegin
2
*MODEL_SPACE
0
ENDBLK
5
21
100
AcDbEntity
100
AcDbBlockEnd
0
BLOCK
5
1C
100
AcDbEntity
100
AcDbBlockBegin
2
*PAPER_SPACE
0
ENDBLK
5
1D
100
AcDbEntity
100
AcDbBlockEnd
0
ENDSEC
0
SECTION
2
ENTITIES
0
ARC
5
100
100
AcDbEntity
8
0
100
AcDbCircle
10
-219.43410700708907
20
-108.50428683715784
30
0
40
3.0000000000000195
210
0
220
-0
230
1
100
AcDbArc
50
45.000000000002302
51
225.00000000000423
0
ARC
5
101
100
AcDbEntity
8
0
100
AcDbCircle
10
-183.17674769420651
20
-123.26164615003657
30
0
40
3.0000000000000195
210
0
220
0
230
1
100
AcDbArc
50
-134.99999999999773
51
45.000000000004228
0
LINE
5
102
100
AcDbEntity
8
0
100
AcDbLine
10
248.5345073357966
20
-485.38296649358978
30
0
11
248.5345073357966
21
-95.382966493599994
31
0
0
LINE
5
103
100
AcDbEntity
8
0
100
AcDbLine
10
-151.68105833130608
20
-135.3829664935962
30
0
11
168.63391550212276
21
-135.38296649359629
31
0
0
LINE
5
104
100
AcDbEntity
8
0
100
AcDbLine
10
-206.46549266403247
20
-243.38395480643516
30
0
11
-206.46549266402619
21
-221.36923618067374
31
0
0
ARC
5
105
100
AcDbEntity
8
0
100
AcDbCircle
10
-186.5473261845741
20
-499.38296649356749
30
0
40
4.9999999999999289
210
0
220
0
230
1
100
AcDbArc
50
-90.000000000000654
51
0
0
ARC
5
106
100
AcDbEntity
8
0
100
AcDbCircle
10
221.29702949129143
20
-219.24791583710282
30
0
40
2.9999999999999689
210
0
220
0
230
1
100
AcDbArc
50
-44.999999999873744
51
135.00000000012588
0
ARC
5
107
100
AcDbEntity
8
0
100
AcDbCircle
10
-219.43410700708822
20
-123.26164615003863
30
0
40
2.9999999999999942
210
0
220
0
230
1
100
AcDbArc
50
135.00000000000384
51
315.0000000000029
0
LINE
5
108
100
AcDbEntity
8
0
100
AcDbLine
10
188.41834983501968
20
-155.16740082646785
30
0
11
188.41834983484634
21
-217.12659549361609
31
0
0
LINE
5
109
100
AcDbEntity
8
0
100
AcDbLine
10
228.53450733579282
20
-75.3829664935962
30
0
11
-211.46549266420277
21
-75.382966493596129
31
0
0
LINE
5
110
100
AcDbEntity
8
0
100
AcDbLine
10
-206.46549266450339
20
-433.78395480634947
30
0
11
-206.46549266450467
21
-411.76923618065462
31
0
0
LINE
5
111
100
AcDbEntity
8
0
100
AcDbLine
10
-202.22285197738489
20
-407.52659549353575
30
0
11
-171.46549266443716
21
-407.52659549354451
31
0
0
LINE
5
112
100
AcDbEntity
8
0
100
AcDbLine
10
188.41834983484634
20
-217.12659549361609
30
0
11
219.1757091477271
21
-217.12659549354782
31
0
0
LINE
5
113
100
AcDbEntity
8
0
100
AcDbLine
10
-231.465492664203
20
-95.382966493596314
30
0
11
-231.46549266419703
21
-485.38296649359614
31
0
0
LINE
5
114
100
AcDbEntity
8
0
100
AcDbLine
10
-171.46549266443716
20
-407.52659549354451
30
0
11
-171.46549266409107
21
-247.62659549362624
31
0
0
LINE
5
115
100
AcDbEntity
8
0
100
AcDbLine
10
188.41834983491407
20
-247.62659549361615
30
0
11
188.41834983526911
21
-407.52659549353439
31
0
0
LINE
5
116
100
AcDbEntity
8
0
100
AcDbLine
10
-217.31278666352949
20
-106.38296649359809
30
0
11
-185.29806803776717
21
-106.38296649359629
31
0
0
ARC
5
117
100
AcDbEntity
8
0
100
AcDbCircle
10
168.63391550212282
20
-155.16740082649312
30
0
40
19.784434332896872
210
0
220
-0
230
1
100
AcDbArc
50
0
51
90.000000000000171
0
ARC
5
118
100
AcDbEntity
8
0
100
AcDbCircle
10
-204.34417232046596
20
-219.2479158371147
30
0
40
2.9999999999999938
210
0
220
-0
230
1
100
AcDbArc
50
44.999999999876025
51
224.99999999998386
0
ARC
5
119
100
AcDbEntity
8
0
100
AcDbCircle
10
-204.34417232047338
20
-245.50527514999538
30
0
40
3.0000000000000195
210
0
220
0
230
1
100
AcDbArc
50
134.99999999998465
51
314.99999999987529
0
LINE
5
120
100
AcDbEntity
8
0
100
AcDbLine
10
223.41834983485572
20
-221.36923618065777
30
0
11
223.41834983490469
21
-243.38395480641921
31
0
0
LINE
5
121
100
AcDbEntity
8
0
100
AcDbLine
10
-171.46549266397173
20
-485.38296649356755
30
0
11
-171.46549266450319
21
-438.0265954934668
31
0
0
LINE
5
122
100
AcDbEntity
8
0
100
AcDbLine
10
-177.30468549745493
20
-485.38296649356744
30
0
11
-171.46549266397173
21
-485.38296649356755
31
0
0
LINE
5
123
100
AcDbEntity
8
0
100
AcDbLine
10
-171.46549266409107
20
-247.62659549362624
30
0
11
-202.22285197691835
21
-247.62659549355965
31
0
0
ARC
5
124
100
AcDbEntity
8
0
100
AcDbCircle
10
-204.34417232094512
20
-409.64791583709484
30
0
40
3.0000000000000195
210
0
220
-0
230
1
100
AcDbArc
50
44.999999999984645
51
225.00000000000304
0
ARC
5
125
100
AcDbEntity
8
0
100
AcDbCircle
10
-211.4654926642028
20
-95.382966493596342
30
0
40
20.000000000000206
210
0
220
-0
230
1
100
AcDbArc
50
89.999999999999929
51
180
0
LINE
5
126
100
AcDbEntity
8
0
100
AcDbLine
10
-171.46549266450319
20
-438.0265954934668
30
0
11
-202.22285197738387
21
-438.02659549346851
31
0
0
LINE
5
127
100
AcDbEntity
8
0
100
AcDbLine
10
219.17570914779478
20
-247.62659549354788
30
0
11
188.41834983491407
21
-247.62659549361615
31
0
0
ARC
5
128
100
AcDbEntity
8
0
100
AcDbCircle
10
-183.17674769420736
20
-108.50428683715579
30
0
40
3.0000000000000067
210
0
220
0
230
1
100
AcDbArc
50
-44.99999999999654
51
135.00000000000404
0
ARC
5
129
100
AcDbEntity
8
0
100
AcDbCircle
10
-151.6810583313061
20
-155.16740082649312
30
0
40
19.784434332896925
210
0
220
-0
230
1
100
AcDbArc
50
89.999999999999929
51
180
0
ARC
5
130
100
AcDbEntity
8
0
100
AcDbCircle
10
-223.66864652813379
20
-487.50428683715586
30
0
40
2.9999999999999689
210
-0
220
0
230
1
100
AcDbArc
50
-44.999999999998835
51
134.99999999999773
0
ARC
5
131
100
AcDbEntity
8
0
100
AcDbCircle
10
221.29702949177724
20
-409.64791583702106
30
0
40
2.9999999999999938
210
0
220
0
230
1
100
AcDbArc
50
-45.000000000001528
51
135.00000000012551
0
LINE
5
132
100
AcDbEntity
8
0
100
AcDbLine
10
-202.22285197690172
20
-217.12659549355965
30
0
11
-171.46549266402505
21
-217.12659549362621
31
0
0
ARC
5
133
100
AcDbEntity
8
0
100
AcDbCircle
10
221.29702949177724
20
-435.90527514989702
30
0
40
2.9999999999999938
210
0
220
0
230
1
100
AcDbArc
50
-134.99999999999923
51
45.000000000000384
0
LINE
5
134
100
AcDbEntity
8
0
100
AcDbLine
10
-181.05542735064759
20
-110.62560718071531
30
0
11
-181.05542735064702
21
-121.14032580647677
31
0
0
ARC
5
135
100
AcDbEntity
8
0
100
AcDbCircle
10
-204.34417232094358
20
-435.90527514990896
30
0
40
2.9999999999999942
210
0
220
0
230
1
100
AcDbArc
50
135.00000000000423
51
315.00000000000227
0
LINE
5
136
100
AcDbEntity
8
0
100
AcDbLine
10
-181.54732618457416
20
-499.38296649356744
30
0
11
-181.54732618457413
21
-489.62560718068681
31
0
0
LINE
5
137
100
AcDbEntity
8
0
100
AcDbLine
10
242.74282404253003
20
-485.38296649358597
30
0
11
248.5345073357966
21
-485.38296649358978
31
0
0
ARC
5
138
100
AcDbEntity
8
0
100
AcDbCircle
10
221.29702949134975
20
-245.50527514998353
30
0
40
2.9999999999999938
210
0
220
0
230
1
100
AcDbArc
50
-134.99999999987332
51
45.000000000126668
0
LINE
5
139
100
AcDbEntity
8
0
100
AcDbLine
10
-221.54732618457416
20
-489.62560718071541
30
0
11
-221.54732618457416
21
-499.38296649356744
31
0
0
ARC
5
140
100
AcDbEntity
8
0
100
AcDbCircle
10
203.50018335540139
20
-499.38296649356028
30
0
40
4.9999999999998579
210
0
220
0
230
1
100
AcDbArc
50
180
51
269.99999999996322
0
LINE
5
141
100
AcDbEntity
8
0
100
AcDbLine
10
-221.55542735064799
20
-121.14032580647914
30
0
11
-221.55542735064856
21
-110.62560718071764
31
0
0
LINE
5
142
100
AcDbEntity
8
0
100
AcDbLine
10
238.50018335540159
20
-499.38296649358313
30
0
11
238.50018335540796
21
-489.62560718070245
31
0
0
ARC
5
143
100
AcDbEntity
8
0
100
AcDbCircle
10
240.62150369896898
20
-487.50428683714415
30
0
40
2.9999999999999689
210
0
220
-0
230
1
100
AcDbArc
50
44.999999999961233
51
224.99999999996317
0
LINE
5
144
100
AcDbEntity
8
0
100
AcDbLine
10
-216.54732618457416
20
-504.38296649356744
30
0
11
-186.54732618457416
21
-504.38296649356744
31
0
0
ARC
5
145
100
AcDbEntity
8
0
100
AcDbCircle
10
233.50018335540153
20
-499.38296649357989
30
0
40
5.0000000000000711
210
0
220
0
230
1
100
AcDbArc
50
269.99999999996254
51
360
0
ARC
5
146
100
AcDbEntity
8
0
100
AcDbCircle
10
196.37886301184966
20
-487.50428683711908
30
0
40
3.0000000000000195
210
-0
220
0
230
1
100
AcDbArc
50
-45.000000000038369
51
135.00000000007176
0
LINE
5
147
100
AcDbEntity
8
0
100
AcDbLine
10
234.26564383434371
20
-125.38296649358541
30
0
11
202.25092520858226
21
-125.38296649358543
31
0
0
LINE
5
148
100
AcDbEntity
8
0
100
AcDbLine
10
-185.29806803776609
20
-125.38296649359631
30
0
11
-217.31278666352847
21
-125.38296649359816
31
0
0
ARC
5
149
100
AcDbEntity
8
0
100
AcDbCircle
10
-179.42600584101453
20
-487.5042868371271
30
0
40
2.9999999999999938
210
0
220
-0
230
1
100
AcDbArc
50
45.000000000000767
51
225.00000000000151
0
ARC
5
150
100
AcDbEntity
8
0
100
AcDbCircle
10
-216.54732618457422
20
-499.38296649356749
30
0
40
4.9999999999999289
210
0
220
0
230
1
100
AcDbArc
50
180
51
270.00000000000068
0
LINE
5
151
100
AcDbEntity
8
0
100
AcDbLine
10
198.008284521463
20
-121.14032580646615
30
0
11
198.008284521463
21
-110.62560718070469
31
0
0
LINE
5
152
100
AcDbEntity
8
0
100
AcDbLine
10
-171.46549266402505
20
-217.12659549362621
30
0
11
-171.465492664203
21
-155.16740082649315
31
0
0
ARC
5
153
100
AcDbEntity
8
0
100
AcDbCircle
10
236.38696417790334
20
-108.50428683714505
30
0
40
2.9999999999999942
210
-0
220
0
230
1
100
AcDbArc
50
-44.999999999999794
51
134.9999999999998
0
ARC
5
154
100
AcDbEntity
8
0
100
AcDbCircle
10
228.53450733579282
20
-95.382966493599952
30
0
40
20.000000000003766
210
-0
220
0
230
1
100
AcDbArc
50
0
51
90
0
ARC
5
155
100
AcDbEntity
8
0
100
AcDbCircle
10
200.12960486502263
20
-108.50428683714505
30
0
40
2.9999999999999942
210
0
220
-0
230
1
100
AcDbArc
50
45.000000000000199
51
225.00000000000023
0
LINE
5
156
100
AcDbEntity
8
0
100
AcDbLine
10
188.41834983526911
20
-407.52659549353439
30
0
11
219.17570914821295
21
-407.52659549346606
31
0
0
ARC
5
157
100
AcDbEntity
8
0
100
AcDbCircle
10
200.12960486502263
20
-123.2616461500258
30
0
40
2.9999999999999942
210
0
220
0
230
1
100
AcDbArc
50
134.9999999999998
51
315
0
LINE
5
158
100
AcDbEntity
8
0
100
AcDbLine
10
188.41834983533684
20
-438.02659549345668
30
0
11
188.418349835442
21
-485.38296649356948
31
0
0
LINE
5
159
100
AcDbEntity
8
0
100
AcDbLine
10
188.418349835442
20
-485.38296649356948
30
0
11
194.25754266828736
21
-485.38296649356209
31
0
0
LINE
5
160
100
AcDbEntity
8
0
100
AcDbLine
10
202.25092520858226
20
-106.3829664935854
30
0
11
234.26564383434371
21
-106.3829664935854
31
0
0
LINE
5
161
100
AcDbEntity
8
0
100
AcDbLine
10
238.508284521463
20
-110.62560718070469
30
0
11
238.50828456616648
21
-121.14032585116958
31
0
0
ARC
5
162
100
AcDbEntity
8
0
100
AcDbCircle
10
236.38696417790334
20
-123.26164615002575
30
0
40
3.0000000000000067
210
0
220
0
230
1
100
AcDbArc
50
-134.9999999999996
51
44.999998792581721
0
LINE
5
163
100
AcDbEntity
8
0
100
AcDbLine
10
198.5001833554079
20
-489.62560718068016
30
0
11
198.50018335540153
21
-499.38296649355686
31
0
0
LINE
5
164
100
AcDbEntity
8
0
100
AcDbLine
10
223.41834983533684
20
-411.76923618058078
30
0
11
223.41834983533687
21
-433.78395480633736
31
0
0
LINE
5
165
100
AcDbEntity
8
0
100
AcDbLine
10
203.50018335539818
20
-504.3829664935601
30
0
11
233.50018335539826
21
-504.38296649357994
31
0
0
LINE
5
166
100
AcDbEntity
8
0
100
AcDbLine
10
219.17570914821763
20
-438.02659549345668
30
0
11
188.41834983533684
21
-438.02659549345668
31
0
0
LINE
5
167
100
AcDbEntity
8
0
100
AcDbLine
10
-231.46549266419703
20
-485.38296649359614
30
0
11
-225.78996687169339
21
-485.38296649359609
31
0
0
ARC
5
168
100
AcDbEntity
8
0
100
AcDbCircle
10
294.0476962302734
20
-432.27024902654023
30
0
40
5.0000000000000355
210
0
220
0
230
1
100
AcDbArc
50
180
51
269.99998842206867
0
LINE
5
169
100
AcDbEntity
8
0
100
AcDbLine
10
643.5574773257689
20
-502.98498860872576
30
0
11
651.55747731307247
21
-502.98498222160242
31
0
0
ARC
5
170
100
AcDbEntity
8
0
100
AcDbCircle
10
655.5540885138771
20
-155.99999999998818
30
0
40
7.000000000000167
210
0
220
-0
230
1
100
AcDbArc
50
0.068754939459289691
51
90
0
ARC
5
171
100
AcDbEntity
8
0
100
AcDbCircle
10
341.66475488671313
20
-439.39157899222289
30
0
40
2.9999999999999938
210
-0
220
0
230
1
100
AcDbArc
50
-44.999999999999233
51
134.99998842206767
0
LWPOLYLINE
5
172
100
AcDbEntity
8
0
100
AcDbPolyline
90
8
70
1
43
0.0
10
653.56481258664928
20
-156.99999999998823
10
641.55009396088781
20
-156.99999999998818
42
0.99999999999999989
10
637.30745327376849
20
-161.24264068710747
10
637.30745327376849
20
-171.75735931286903
42
0.99999999999999989
10
641.55009396088781
20
-175.99999999998829
10
653.56481258664928
20
-175.99999999998823
42
0.99999999999999989
10
657.80745327376849
20
-171.75735931286894
10
657.80745327376849
20
-161.2426406871075
42
0.99999999999999989
0
LINE
5
173
100
AcDbEntity
8
0
100
AcDbLine
10
370.02870534354395
20
-483.98497982481837
30
0
11
373.78607523027222
21
-483.98497982481786
31
0
0
LINE
5
174
100
AcDbEntity
8
0
100
AcDbLine
10
373.78607523027324
20
-272.27027127350135
30
0
11
363.02871591739256
21
-272.27027127350135
31
0
0
LINE
5
175
100
AcDbEntity
8
0
100
AcDbLine
10
640.55746555333917
20
-488.2426353264716
30
0
11
640.5574749299526
21
-499.98499100469098
31
0
0
LINE
5
176
100
AcDbEntity
8
0
100
AcDbLine
10
365.78605357374209
20
-499.98499100469763
30
0
11
365.78606296246909
21
-488.22761881798078
31
0
0
LINE
5
177
100
AcDbEntity
8
0
100
AcDbLine
10
373.78607523027324
20
-417.27027127350135
30
0
11
363.02871591739245
21
-417.27027127350135
31
0
0
ARC
5
178
100
AcDbEntity
8
0
100
AcDbCircle
10
651.55747491727675
20
-499.98498222036812
30
0
40
3.0000000012352124
210
-0
220
0
230
1
100
AcDbArc
50
-89.999954243672292
51
4.5977117930531101e-05
0
LINE
5
179
100
AcDbEntity
8
0
100
AcDbLine
10
373.78607523027222
20
-483.98497982481786
30
0
11
373.78607523027324
21
-417.27027127350135
31
0
0
ARC
5
180
100
AcDbEntity
8
0
100
AcDbCircle
10
354.78605358673667
20
-499.98498222118337
30
0
40
3.0000000001670628
210
0
220
0
230
1
100
AcDbArc
50
179.99995400703062
51
269.9999542470768
0
ARC
5
181
100
AcDbEntity
8
0
100
AcDbCircle
10
638.43614351563599
20
-486.12131667705677
30
0
40
2.999999999999996
210
0
220
0
230
1
100
AcDbArc
50
-44.999954242030711
51
134.99999999999923
0
ARC
5
182
100
AcDbEntity
8
0
100
AcDbCircle
10
645.43614093135034
20
-238.89159161706095
30
0
40
2.9999999999999689
210
0
220
0
230
1
100
AcDbArc
50
-45.000000000001528
51
135.0000000000023
0
ARC
5
183
100
AcDbEntity
8
0
100
AcDbCircle
10
294.04769623027323
20
-242.27027127350152
30
0
40
4.9999999999998934
210
0
220
0
230
1
100
AcDbArc
50
180
51
270
0
ARC
5
184
100
AcDbEntity
8
0
100
AcDbCircle
10
349.6647443836585
20
-486.10630016837769
30
0
40
3.0000000000000062
210
-0
220
0
230
1
100
AcDbArc
50
-45.000045992279318
51
134.99999999999847
0
ARC
5
185
100
AcDbEntity
8
0
100
AcDbCircle
10
643.5574749299667
20
-499.98498860871166
30
0
40
3.0000000000149973
210
0
220
0
230
1
100
AcDbArc
50
180.00004575462106
51
270.00004575645147
0
LINE
5
186
100
AcDbEntity
8
0
100
AcDbLine
10
363.02871591739262
20
-236.77027127350132
30
0
11
373.78607523027324
21
-236.77027127350132
31
0
0
ARC
5
187
100
AcDbEntity
8
0
100
AcDbCircle
10
656.67878413250776
20
-486.12131667705683
30
0
40
2.9999999999999938
210
0
220
-0
230
1
100
AcDbArc
50
45
51
225.00004599296946
0
LINE
5
188
100
AcDbEntity
8
0
100
AcDbLine
10
358.78607523027324
20
-268.02763058638209
30
0
11
358.78607523027324
21
-241.01291196062061
31
0
0
LINE
5
189
100
AcDbEntity
8
0
100
AcDbLine
10
654.55747491851093
20
-499.98497981298505
30
0
11
654.55746549179366
21
-488.24263872346057
31
0
0
LINE
5
190
100
AcDbEntity
8
0
100
AcDbLine
10
662.55784925385819
20
-213.02806012117176
30
0
11
662.55889582930763
21
-189.8896134876266
31
0
0
LINE
5
191
100
AcDbEntity
8
0
100
AcDbLine
10
662.55763701428896
20
-407.27023667050037
30
0
11
662.55746729246107
21
-407.2702366840856
31
0
0
ARC
5
192
100
AcDbEntity
8
0
100
AcDbCircle
10
664.67878755168726
20
-405.14874653437084
30
0
40
3.0000000000000968
210
0
220
0
230
1
100
AcDbArc
50
135.00000227762422
51
225.00000227762109
0
LINE
5
193
100
AcDbEntity
8
0
100
AcDbLine
10
662.55774522419938
20
-217.27078867754994
30
0
11
662.55765735093519
21
-217.27078867721531
31
0
0
LINE
5
194
100
AcDbEntity
8
0
100
AcDbLine
10
373.78607523027324
20
-381.77027127350135
30
0
11
373.78607523027324
21
-272.27027127350135
31
0
0
ARC
5
195
100
AcDbEntity
8
0
100
AcDbCircle
10
294.04769623027335
20
-412.27027107474112
30
0
40
4.9999999999999325
210
0
220
0
230
1
100
AcDbArc
50
90.000002277625811
51
180
0
LINE
5
196
100
AcDbEntity
8
0
100
AcDbLine
10
643.31482058779079
20
-417.27027127350135
30
0
11
632.55889582930843
21
-417.27027127350135
31
0
0
LINE
5
197
100
AcDbEntity
8
0
100
AcDbLine
10
358.78607523027324
20
-413.02763058638197
30
0
11
358.78607523027324
21
-386.01291196062073
31
0
0
LINE
5
198
100
AcDbEntity
8
0
100
AcDbLine
10
712.29602265423227
20
-217.27097808189839
30
0
11
666.800385911288
21
-217.27080483360996
31
0
0
ARC
5
199
100
AcDbEntity
8
0
100
AcDbCircle
10
645.43614093135034
20
-270.14895092994169
30
0
40
2.9999999999999689
210
0
220
0
230
1
100
AcDbArc
50
-134.99999999999847
51
45.000000000000767
0
LINE
5
200
100
AcDbEntity
8
0
100
AcDbLine
10
662.55746729246107
20
-407.2702366840856
30
0
11
662.55746729245425
21
-407.27006696225726
31
0
0
LINE
5
201
100
AcDbEntity
8
0
100
AcDbLine
10
339.54343454315404
20
-217.27027127350141
30
0
11
294.04769623027323
21
-217.27027127350141
31
0
0
ARC
5
202
100
AcDbEntity
8
0
100
AcDbCircle
10
360.9073955738329
20
-383.89159161706095
30
0
40
2.999999999999944
210
0
220
-0
230
1
100
AcDbArc
50
45.000000000000767
51
225.00000000000151
0
LINE
5
203
100
AcDbEntity
8
0
100
AcDbLine
10
363.02871591739245
20
-381.77027127350135
30
0
11
373.78607523027324
21
-381.77027127350135
31
0
0
LINE
5
204
100
AcDbEntity
8
0
100
AcDbLine
10
647.55746127490988
20
-386.01291196062073
30
0
11
647.55746127490988
21
-413.02763058638197
31
0
0
ARC
5
205
100
AcDbEntity
8
0
100
AcDbCircle
10
341.66476086457578
20
-405.14894883830522
30
0
40
2.9999999999999964
210
0
220
0
230
1
100
AcDbArc
50
-134.99999772237504
51
45.000002277624965
0
LINE
5
206
100
AcDbEntity
8
0
100
AcDbLine
10
662.55765735093519
20
-217.27078867721531
30
0
11
662.55765735490968
21
-217.27070080395112
31
0
0
LINE
5
207
100
AcDbEntity
8
0
100
AcDbLine
10
712.29544599331791
20
-407.26625544792523
30
0
11
666.80027768781667
21
-407.26989707176904
31
0
0
LINE
5
208
100
AcDbEntity
8
0
100
AcDbLine
10
364.79343454315432
20
-176.59999999999923
30
0
11
352.77871591739301
21
-176.59999999999928
31
0
0
LINE
5
209
100
AcDbEntity
8
0
100
AcDbLine
10
632.55889582930843
20
-236.77027127350132
30
0
11
643.31482058779056
21
-236.77027127350135
31
0
0
LINE
5
210
100
AcDbEntity
8
0
100
AcDbLine
10
343.78607523027324
20
-155.99999999998835
30
0
11
343.78607523027341
21
-213.0276305863822
31
0
0
LINE
5
211
100
AcDbEntity
8
0
100
AcDbLine
10
717.29584660285127
20
-432.26609319570173
30
0
11
717.29584621426079
21
-412.26625533475919
31
0
0
LINE
5
212
100
AcDbEntity
8
0
100
AcDbLine
10
662.55889582930763
20
-189.8896134876266
30
0
11
662.55889582930763
21
-160.00189403408993
31
0
0
LINE
5
213
100
AcDbEntity
8
0
100
AcDbLine
10
666.80143549523677
20
-437.26825977478052
30
0
11
712.29608470641222
21
-437.26609328718075
31
0
0
ARC
5
214
100
AcDbEntity
8
0
100
AcDbCircle
10
712.29587266770977
20
-242.2709643848859
30
0
40
4.9999999999999121
210
0
220
0
230
1
100
AcDbArc
50
269.99962486587225
51
359.99962486678271
0
LINE
5
215
100
AcDbEntity
8
0
100
AcDbLine
10
662.55889582930763
20
-160.00189403408993
30
0
11
662.55408347387731
21
-155.99160000151019
31
0
0
ARC
5
216
100
AcDbEntity
8
0
100
AcDbCircle
10
664.67878136003469
20
-249.3919729639951
30
0
40
2.9999999999999725
210
0
220
0
230
1
100
AcDbArc
50
134.99981357174937
51
225.00000227762496
0
ARC
5
217
100
AcDbEntity
8
0
100
AcDbCircle
10
360.90739557383296
20
-238.89159161706095
30
0
40
3.0000000000000195
210
0
220
-0
230
1
100
AcDbArc
50
44.999999999999623
51
224.99999999999923
0
LINE
5
218
100
AcDbEntity
8
0
100
AcDbLine
10
647.55746127490988
20
-241.01291196062061
30
0
11
647.55746127490988
21
-268.02763058638209
31
0
0
ARC
5
219
100
AcDbEntity
8
0
100
AcDbCircle
10
367.90738499998463
20
-486.10630016837843
30
0
40
3.000000000000095
210
0
220
-0
230
1
100
AcDbArc
50
45.000000000009969
51
224.99995424709726
0
ARC
5
220
100
AcDbEntity
8
0
100
AcDbCircle
10
712.29600361413304
20
-222.27097808186201
30
0
40
4.9999999999998765
210
-0
220
0
230
1
100
AcDbArc
50
-0.0003751341888557623
51
89.999781816534494
0
ARC
5
221
100
AcDbEntity
8
0
100
AcDbCircle
10
360.9073955738329
20
-415.14895092994163
30
0
40
2.9999999999999938
210
0
220
0
230
1
100
AcDbArc
50
135
51
314.99999999999773
0
ARC
5
222
100
AcDbEntity
8
0
100
AcDbCircle
10
664.67907364577377
20
-215.14947641203565
30
0
40
3.0000000000000404
210
0
220
0
230
1
100
AcDbArc
50
224.99978181653233
51
314.99978181653273
0
ARC
5
223
100
AcDbEntity
8
0
100
AcDbCircle
10
360.9073955738329
20
-270.14895092994169
30
0
40
2.9999999999999689
210
0
220
0
230
1
100
AcDbArc
50
135.00000000000077
51
315
0
ARC
5
224
100
AcDbEntity
8
0
100
AcDbCircle
10
362.78605357372635
20
-499.98498860884359
30
0
40
3.0000000000167022
210
0
220
0
230
1
100
AcDbArc
50
269.99995424707458
51
359.99995424537894
0
ARC
5
225
100
AcDbEntity
8
0
100
AcDbCircle
10
664.67878136003469
20
-249.3919729639951
30
0
40
3.0000000000000346
210
0
220
-0
230
1
100
AcDbArc
50
44.999624865873351
51
134.99981357174937
0
ARC
5
226
100
AcDbEntity
8
0
100
AcDbCircle
10
664.67907364577377
20
-215.14947641203565
30
0
40
2.9999999999999716
210
0
220
0
230
1
100
AcDbArc
50
134.99740845368581
51
224.99740845368154
0
ARC
5
227
100
AcDbEntity
8
0
100
AcDbCircle
10
341.66475488671369
20
-249.39159161706104
30
0
40
2.9999999999999942
210
0
220
0
230
1
100
AcDbArc
50
-44.999999999995779
51
135.00000000000037
0
LINE
5
228
100
AcDbEntity
8
0
100
AcDbLine
10
666.80011559252398
20
-247.27066650945599
30
0
11
712.29583993108145
21
-247.27096438477867
31
0
0
ARC
5
229
100
AcDbEntity
8
0
100
AcDbCircle
10
664.67878755168726
20
-405.14874653437084
30
0
40
3.0000000000000289
210
0
220
0
230
1
100
AcDbArc
50
225.00458619418478
51
315.00458619418475
0
ARC
5
230
100
AcDbEntity
8
0
100
AcDbCircle
10
350.65739557383324
20
-174.47867965643974
30
0
40
2.9999999999999938
210
0
220
0
230
1
100
AcDbArc
50
134.99999999999886
51
315.00000000000307
0
LINE
5
231
100
AcDbEntity
8
0
100
AcDbLine
10
717.29587266760268
20
-242.27099712151411
30
0
11
717.29600361402572
21
-222.27101081849025
31
0
0
ARC
5
232
100
AcDbEntity
8
0
100
AcDbCircle
10
294.04769623027323
20
-222.27027127350129
30
0
40
4.9999999999998934
210
0
220
-0
230
1
100
AcDbArc
50
90
51
180
0
ARC
5
233
100
AcDbEntity
8
0
100
AcDbCircle
10
341.66475488671369
20
-215.14895092994175
30
0
40
2.9999999999999938
210
0
220
0
230
1
100
AcDbArc
50
-135
51
44.999999999997691
0
ARC
5
234
100
AcDbEntity
8
0
100
AcDbCircle
10
712.29584621426079
20
-412.26625543190755
30
0
40
5.0000000000000009
210
0
220
-0
230
1
100
AcDbArc
50
8.5377364625159387e-07
51
90.004586194184824
0
ARC
5
235
100
AcDbEntity
8
0
100
AcDbCircle
10
366.91475488671404
20
-174.47867965643957
30
0
40
3.0000000000000195
210
0
220
0
230
1
100
AcDbArc
50
-135.00000000000077
51
45.000000000001542
0
ARC
5
236
100
AcDbEntity
8
0
100
AcDbCircle
10
664.68021617286797
20
-439.38968113472038
30
0
40
2.9999999999999933
210
0
220
-0
230
1
100
AcDbArc
50
45.002728465826529
51
225
0
ARC
5
237
100
AcDbEntity
8
0
100
AcDbCircle
10
645.43614093135034
20
-415.14895092994175
30
0
40
2.999999999999944
210
0
220
0
230
1
100
AcDbArc
50
-134.99999999999923
51
45.00000000000307
0
ARC
5
238
100
AcDbEntity
8
0
100
AcDbCircle
10
380.7860752302733
20
-187
30
0
40
6.9999999999999929
210
0
220
-0
230
1
100
AcDbArc
50
90
51
180
0
LINE
5
239
100
AcDbEntity
8
0
100
AcDbLine
10
643.31482058779079
20
-272.27027127350135
30
0
11
632.55889582930843
21
-272.27027127350135
31
0
0
LINE
5
240
100
AcDbEntity
8
0
100
AcDbLine
10
339.54344060534299
20
-407.27026926619169
30
0
11
294.047696031513
21
-407.27027107474123
31
0
0
LINE
5
241
100
AcDbEntity
8
0
100
AcDbLine
10
632.55889582930843
20
-272.27027127350135
30
0
11
632.55889582930843
21
-381.77027127350135
31
0
0
LINE
5
242
100
AcDbEntity
8
0
100
AcDbLine
10
632.55889582930843
20
-381.77027127350135
30
0
11
643.31482058779079
21
-381.77027127350135
31
0
0
ARC
5
243
100
AcDbEntity
8
0
100
AcDbCircle
10
712.29584660285127
20
-432.26609329285009
30
0
40
4.9999999999999813
210
-0
220
0
230
1
100
AcDbArc
50
-89.997271534173123
51
8.5377364625159387e-07
0
LINE
5
244
100
AcDbEntity
8
0
100
AcDbLine
10
662.55746712380073
20
-403.02742627513794
30
0
11
662.5574611008019
21
-251.51329339188158
31
0
0
LINE
5
245
100
AcDbEntity
8
0
100
AcDbLine
10
632.55889582930843
20
-186.99999999999994
30
0
11
632.55889582930843
21
-236.77027127350132
31
0
0
LINE
5
246
100
AcDbEntity
8
0
100
AcDbLine
10
343.78607523027324
20
-254.7702713578548
30
0
11
343.78608112380857
21
-403.02762841041874
31
0
0
ARC
5
247
100
AcDbEntity
8
0
100
AcDbCircle
10
645.43614093135034
20
-383.89159161706107
30
0
40
2.9999999999999938
210
-0
220
0
230
1
100
AcDbArc
50
-45.000000000001528
51
134.99999999999773
0
LINE
5
248
100
AcDbEntity
8
0
100
AcDbLine
10
655.5540885138771
20
-148.99999999998806
30
0
11
350.78607523027324
21
-148.9999999999884
31
0
0
LINE
5
249
100
AcDbEntity
8
0
100
AcDbLine
10
380.7860752302733
20
-180
30
0
11
625.55889582930843
21
-180
31
0
0
LINE
5
250
100
AcDbEntity
8
0
100
AcDbLine
10
351.78606302439817
20
-488.22762221475591
30
0
11
351.78605358657057
21
-499.98497981299226
31
0
0
LINE
5
251
100
AcDbEntity
8
0
100
AcDbLine
10
348.53607523027364
20
-172.35735931288005
30
0
11
348.5360752302737
21
-161.8426406871186
31
0
0
LINE
5
252
100
AcDbEntity
8
0
100
AcDbLine
10
294.04769521990829
20
-437.27024902654017
30
0
11
339.5434349718152
21
-437.27025822000166
31
0
0
LINE
5
253
100
AcDbEntity
8
0
100
AcDbLine
10
343.78607523027347
20
-251.5129119606205
30
0
11
343.78607523027324
21
-254.7702713578548
31
0
0
LINE
5
254
100
AcDbEntity
8
0
100
AcDbLine
10
658.80010447606742
20
-483.99999633349717
30
0
11
662.55889582930854
21
-483.99999633349717
31
0
0
LINE
5
255
100
AcDbEntity
8
0
100
AcDbLine
10
294.04769623027323
20
-247.27027127350141
30
0
11
339.54343454315404
21
-247.27027127350141
31
0
0
LINE
5
256
100
AcDbEntity
8
0
100
AcDbLine
10
373.78607523027324
20
-236.77027127350132
30
0
11
373.78607523027324
21
-187
31
0
0
LINE
5
257
100
AcDbEntity
8
0
100
AcDbLine
10
662.55889582930854
20
-483.99999633349717
30
0
11
662.55889582930831
21
-441.51100147828004
31
0
0
LINE
5
258
100
AcDbEntity
8
0
100
AcDbLine
10
289.04769623027329
20
-222.27027127350135
30
0
11
289.04769623027329
21
-242.27027127350146
31
0
0
LINE
5
259
100
AcDbEntity
8
0
100
AcDbLine
10
289.0476962302734
20
-412.27027107474106
30
0
11
289.0476962302734
21
-432.27024902654028
31
0
0
LINE
5
260
100
AcDbEntity
8
0
100
AcDbLine
10
354.78605119111921
20
-502.98498222134947
30
0
11
362.78605117810878
21
-502.98498860885934
31
0
0
LINE
5
261
100
AcDbEntity
8
0
100
AcDbLine
10
343.78607523027267
20
-483.98497982481808
30
0
11
347.5434240400989
21
-483.98497982481797
31
0
0
LINE
5
262
100
AcDbEntity
8
0
100
AcDbLine
10
632.55889582930843
20
-417.27027127350135
30
0
11
632.55889582930843
21
-483.99999633349722
31
0
0
LINE
5
263
100
AcDbEntity
8
0
100
AcDbLine
10
343.78607523027279
20
-441.51289933578249
30
0
11
343.78607523027267
21
-483.98497982481808
31
0
0
LINE
5
264
100
AcDbEntity
8
0
100
AcDbLine
10
632.55889582930843
20
-483.99999633349722
30
0
11
636.31482317207644
21
-483.99999633349717
31
0
0
LINE
5
265
100
AcDbEntity
8
0
100
AcDbLine
10
352.77871591739301
20
-157.59999999999934
30
0
11
364.79343454315426
21
-157.59999999999937
31
0
0
LINE
5
266
100
AcDbEntity
8
0
100
AcDbLine
10
369.03607523027352
20
-161.84264068711869
30
0
11
369.03607523027358
21
-172.35735931287991
31
0
0
ARC
5
267
100
AcDbEntity
8
0
100
AcDbCircle
10
350.78607523027324
20
-155.99999999998838
30
0
40
6.9999999999999751
210
0
220
-0
230
1
100
AcDbArc
50
90
51
180
0
ARC
5
268
100
AcDbEntity
8
0
100
AcDbCircle
10
366.91475488671392
20
-159.72132034355903
30
0
40
2.9999999999999813
210
-0
220
0
230
1
100
AcDbArc
50
-45.00000000000076
51
135
0
ARC
5
269
100
AcDbEntity
8
0
100
AcDbCircle
10
350.65739557383336
20
-159.72132034355897
30
0
40
2.9999999999999689
210
0
220
-0
230
1
100
AcDbArc
50
44.999999999999623
51
224.99999999999963
0
ARC
5
270
100
AcDbEntity
8
0
100
AcDbCircle
10
625.55889582930843
20
-186.99999999999994
30
0
40
6.9999999999999574
210
0
220
0
230
1
100
AcDbArc
50
0
51
90
0
LINE
5
271
100
AcDbEntity
8
0
100
AcDbLine
10
257.7124747701867
20
-20.059097912083388
30
0
11
257.71247477018653
21
919.9409020879159
31
0
0
LINE
5
272
100
AcDbEntity
8
0
100
AcDbLine
10
197.71247477018449
20
374.55844408788465
30
0
11
197.7124747701869
21
-20.059097912084098
31
0
0
LINE
5
273
100
AcDbEntity
8
0
100
AcDbLine
10
-162.2875252298131
20
405.05844408788539
30
0
11
-162.28752522981324
21
859.9409020879483
31
0
0
LINE
5
274
100
AcDbEntity
8
0
100
AcDbLine
10
-222.28752522981324
20
919.94090208791579
30
0
11
-222.2875252298131
21
-20.05909791208353
31
0
0
LINE
5
275
100
AcDbEntity
8
0
100
AcDbLine
10
197.71247477018676
20
859.9409020879159
30
0
11
197.71247477018449
21
405.0584440878846
31
0
0
ARC
5
276
100
AcDbEntity
8
0
100
AcDbCircle
10
235.0911544266269
20
248.31958174435627
30
0
40
3.0000000000000444
210
-0
220
0
230
1
100
AcDbArc
50
-44.999999999998067
51
135
0
ARC
5
277
100
AcDbEntity
8
0
100
AcDbCircle
10
220.33379511374633
20
248.31958174435627
30
0
40
2.9999999999999938
210
0
220
-0
230
1
100
AcDbArc
50
44.999999999998849
51
224.99999999999883
0
ARC
5
278
100
AcDbEntity
8
0
100
AcDbCircle
10
177.71247477018662
20
859.9409020879159
30
0
40
20.000000000000142
210
-0
220
0
230
1
100
AcDbArc
50
0
51
90
0
LINE
5
279
100
AcDbEntity
8
0
100
AcDbLine
10
-182.78752522981605
20
246.19826140079738
30
0
11
-182.7875252298162
21
214.18354277503582
31
0
0
LWPOLYLINE
5
280
100
AcDbEntity
8
0
100
AcDbPolyline
90
8
70
1
43
0.0
10
-176.28016591693651
20
439.05844408788539
42
-0.99999999999999989
10
-172.03752522981702
20
434.81580340076607
10
-172.03752522981759
20
424.30108477500482
42
-0.99999999999999989
10
-176.28016591693623
20
420.05844408788516
10
-208.29488454269793
20
420.0584440878838
42
-0.99999999999999989
10
-212.53752522981713
20
424.30108477500312
10
-212.53752522981699
20
434.81580340076619
42
-0.99999999999999989
10
-208.29488454269779
20
439.0584440878855
0
LWPOLYLINE
5
281
100
AcDbEntity
8
0
100
AcDbPolyline
90
8
70
1
43
0.0
10
211.7051154573079
20
420.05844408788437
10
243.71983408306937
20
420.05844408788289
42
0.99999999999999989
10
247.96247477018875
20
424.3010847750021
10
247.96247477018875
20
434.81580340076528
42
0.99999999999999989
10
243.71983408306946
20
439.05844408788454
10
211.70511545730818
20
439.05844408788454
42
0.99999999999999989
10
207.46247477018898
20
434.81580340076516
10
207.46247477018883
20
424.30108477500374
42
0.99999999999999989
0
ARC
5
282
100
AcDbEntity
8
0
100
AcDbCircle
10
-142.2875252298455
20
859.9409020879483
30
0
40
19.999999999967741
210
0
220
-0
230
1
100
AcDbArc
50
90
51
180
0
LINE
5
283
100
AcDbEntity
8
0
100
AcDbLine
10
197.7124747701869
20
-20.059097912084098
30
0
11
257.7124747701867
21
-20.059097912083388
31
0
0
LINE
5
284
100
AcDbEntity
8
0
100
AcDbLine
10
237.71247477018647
20
939.94090208791602
30
0
11
-202.2875252298131
21
939.9409020879159
31
0
0
LINE
5
285
100
AcDbEntity
8
0
100
AcDbLine
10
232.96983408306721
20
209.9409020879159
30
0
11
222.45511545730585
21
209.9409020879159
31
0
0
LINE
5
286
100
AcDbEntity
8
0
100
AcDbLine
10
-162.28752522981296
20
-20.05909791208353
30
0
11
-162.2875252298131
21
374.55844408788545
31
0
0
ARC
5
287
100
AcDbEntity
8
0
100
AcDbCircle
10
237.71247477018647
20
919.9409020879159
30
0
40
20.000000000000071
210
0
220
-0
230
1
100
AcDbArc
50
0
51
90
0
ARC
5
288
100
AcDbEntity
8
0
100
AcDbCircle
10
220.33379511374625
20
212.0622224314755
30
0
40
2.9999999999999938
210
0
220
0
230
1
100
AcDbArc
50
135.00000000000077
51
315
0
ARC
5
289
100
AcDbEntity
8
0
100
AcDbCircle
10
-202.2875252298131
20
919.94090208791579
30
0
40
20.000000000000142
210
0
220
-0
230
1
100
AcDbArc
50
90
51
180
0
LINE
5
290
100
AcDbEntity
8
0
100
AcDbLine
10
222.45511545730602
20
250.44090208791587
30
0
11
232.9698340830673
21
250.44090208791587
31
0
0
LINE
5
291
100
AcDbEntity
8
0
100
AcDbLine
10
218.21247477018659
20
214.18354277503511
30
0
11
218.21247477018665
21
246.19826140079667
31
0
0
ARC
5
292
100
AcDbEntity
8
0
100
AcDbCircle
10
214.59115442662466
20
376.67976443144426
30
0
40
3.0000000000000444
210
0
220
0
230
1
100
AcDbArc
50
-134.99999999999773
51
44.999999999998082
0
LINE
5
293
100
AcDbEntity
8
0
100
AcDbLine
10
-201.78752522981625
20
214.18354277503596
30
0
11
-201.78752522981611
21
246.19826140079752
31
0
0
ARC
5
294
100
AcDbEntity
8
0
100
AcDbCircle
10
214.5911544266248
20
402.93712374432494
30
0
40
3.0000000000000444
210
-0
220
0
230
1
100
AcDbArc
50
-44.999999999999595
51
134.99999999999923
0
LINE
5
295
100
AcDbEntity
8
0
100
AcDbLine
10
-142.2875252298455
20
879.94090208791602
30
0
11
177.71247477018662
21
879.94090208791602
31
0
0
LINE
5
296
100
AcDbEntity
8
0
100
AcDbLine
10
237.21247477018665
20
246.19826140079667
30
0
11
237.21247477018642
21
214.18354277503511
31
0
0
LINE
5
297
100
AcDbEntity
8
0
100
AcDbLine
10
-197.54488454269676
20
250.44090208791673
30
0
11
-187.03016591693526
21
250.44090208791673
31
0
0
ARC
5
298
100
AcDbEntity
8
0
100
AcDbCircle
10
235.09115442662682
20
212.0622224314755
30
0
40
2.999999999999944
210
0
220
0
230
1
100
AcDbArc
50
-135
51
45
0
ARC
5
299
100
AcDbEntity
8
0
100
AcDbCircle
10
-199.66620488625651
20
248.31958174435712
30
0
40
3.0000000000000444
210
0
220
-0
230
1
100
AcDbArc
50
44.999999999998082
51
225
0
LINE
5
300
100
AcDbEntity
8
0
100
AcDbLine
10
197.71247477018449
20
405.0584440878846
30
0
11
212.46983408306519
21
405.0584440878846
31
0
0
LINE
5
301
100
AcDbEntity
8
0
100
AcDbLine
10
212.46983408306505
20
374.55844408788448
30
0
11
197.71247477018449
21
374.55844408788465
31
0
0
ARC
5
302
100
AcDbEntity
8
0
100
AcDbCircle
10
-184.90884557337566
20
248.31958174435698
30
0
40
2.999999999999944
210
-0
220
0
230
1
100
AcDbArc
50
-45
51
134.9999999999981
0
ARC
5
303
100
AcDbEntity
8
0
100
AcDbCircle
10
-184.9088455733758
20
212.06222243147621
30
0
40
3.0000000000000444
210
0
220
0
230
1
100
AcDbArc
50
-135.00000000000193
51
45
0
LINE
5
304
100
AcDbEntity
8
0
100
AcDbLine
10
-181.28752522981316
20
378.80108477500477
30
0
11
-181.28752522981316
21
400.81580340076607
31
0
0
LINE
5
305
100
AcDbEntity
8
0
100
AcDbLine
10
-162.2875252298131
20
374.55844408788545
30
0
11
-177.04488454269395
21
374.55844408788545
31
0
0
LINE
5
306
100
AcDbEntity
8
0
100
AcDbLine
10
-177.04488454269395
20
405.05844408788539
30
0
11
-162.2875252298131
21
405.05844408788539
31
0
0
ARC
5
307
100
AcDbEntity
8
0
100
AcDbCircle
10
-179.16620488625355
20
376.67976443144511
30
0
40
2.9999999999999938
210
0
220
0
230
1
100
AcDbArc
50
134.99999999999923
51
314.9999999999992
0
LINE
5
308
100
AcDbEntity
8
0
100
AcDbLine
10
-187.03016591693554
20
209.94090208791661
30
0
11
-197.54488454269691
21
209.94090208791675
31
0
0
ARC
5
309
100
AcDbEntity
8
0
100
AcDbCircle
10
-179.16620488625355
20
402.93712374432567
30
0
40
3.0000000000000444
210
0
220
-0
230
1
100
AcDbArc
50
45.000000000001542
51
225
0
LINE
5
310
100
AcDbEntity
8
0
100
AcDbLine
10
-222.2875252298131
20
-20.05909791208353
30
0
11
-162.28752522981296
21
-20.05909791208353
31
0
0
LINE
5
311
100
AcDbEntity
8
0
100
AcDbLine
10
216.71247477018449
20
400.81580340076528
30
0
11
216.7124747701844
21
378.80108477500386
31
0
0
ARC
5
312
100
AcDbEntity
8
0
100
AcDbCircle
10
-199.66620488625651
20
212.06222243147636
30
0
40
3.0000000000000444
210
0
220
0
230
1
100
AcDbArc
50
135.00000000000193
51
315
0
LWPOLYLINE
5
313
100
AcDbEntity
8
0
100
AcDbPolyline
90
24
70
1
43
0.0
10
598.23433099586373
20
14.428075690303572
10
598.23433099586373
20
314.14855069032524
10
613.65401111274264
20
314.14855069032529
42
0.87005197324561601
10
617.23433099586362
20
318.89119137744461
10
617.23433099586362
20
340.40591000320609
42
0.99999999999999989
10
612.9916903087443
20
344.64855069032529
10
598.23433099586373
20
344.64855069032535
10
598.23433099586384
20
709.42807569030208
42
0.41421356237309814
10
578.23433099586339
20
729.42807569030253
10
369.46294499586372
20
729.42807569030253
42
0.41421356237309398
10
349.46294499586372
20
709.42807569030253
10
349.46294499587214
20
344.64855069032291
10
334.7055856829914
20
344.64855069032262
42
0.99999999999999989
10
330.46294499587219
20
340.40591000320325
10
330.46294499587259
20
318.89119137744183
42
0.87005197324561923
10
334.04326487899345
20
314.14855069032262
10
349.4629449958727
20
314.14855069032291
10
349.46294499586384
20
14.428075690340663
10
314.46294499586384
20
14.428075690340734
10
314.46294499586401
20
744.42807569030265
42
-0.41421356237309503
10
334.46294499586384
20
764.42807569030253
10
613.23433099586373
20
764.42807569030242
42
-0.41421356237309503
10
633.23433099586373
20
744.42807569030242
10
633.234330995866
20
14.428075690302755
0
ARC
5
314
100
AcDbEntity
8
0
100
AcDbCircle
10
334.84162465230736
20
361.76987103388228
30
0
40
2.999999999999944
210
0
220
0
230
1
100
AcDbArc
50
-134.99999999999923
51
45.000000000001542
0
ARC
5
315
100
AcDbEntity
8
0
100
AcDbCircle
10
324.58426533942645
20
376.52723034676274
30
0
40
2.9999999999998934
210
0
220
-0
230
1
100
AcDbArc
50
45.00000000000307
51
225.00000000000151
0
ARC
5
316
100
AcDbEntity
8
0
100
AcDbCircle
10
612.85565133942805
20
361.76987103388501
30
0
40
3.0000000000000444
210
0
220
0
230
1
100
AcDbArc
50
135.00000000000156
51
315.00000000000153
0
ARC
5
317
100
AcDbEntity
8
0
100
AcDbCircle
10
324.58426533942713
20
361.76987103388223
30
0
40
2.9999999999999938
210
0
220
0
230
1
100
AcDbArc
50
135.00000000000384
51
315.00000000000227
0
LINE
5
318
100
AcDbEntity
8
0
100
AcDbLine
10
332.72030430874781
20
359.64855069032268
30
0
11
326.70558568298691
21
359.64855069032262
31
0
0
LINE
5
319
100
AcDbEntity
8
0
100
AcDbLine
10
614.97697168298771
20
378.64855069032535
30
0
11
620.99169030874907
21
378.64855069032524
31
0
0
ARC
5
320
100
AcDbEntity
8
0
100
AcDbCircle
10
334.84162465230713
20
376.52723034676296
30
0
40
2.9999999999999938
210
-0
220
0
230
1
100
AcDbArc
50
-45.000000000001528
51
135.00000000000307
0
ARC
5
321
100
AcDbEntity
8
0
100
AcDbCircle
10
623.11301065230873
20
376.52723034676558
30
0
40
2.9999999999999938
210
-0
220
0
230
1
100
AcDbArc
50
-45.000000000002288
51
135
0
LINE
5
322
100
AcDbEntity
8
0
100
AcDbLine
10
610.73433099586839
20
363.89119137744456
30
0
11
610.73433099586839
21
374.40591000320609
31
0
0
ARC
5
323
100
AcDbEntity
8
0
100
AcDbCircle
10
612.85565133942805
20
376.52723034676569
30
0
40
2.9999999999999938
210
0
220
-0
230
1
100
AcDbArc
50
45
51
224.99999999999923
0
ARC
5
324
100
AcDbEntity
8
0
100
AcDbCircle
10
623.11301065230828
20
361.76987103388512
30
0
40
3.0000000000000444
210
0
220
0
230
1
100
AcDbArc
50
-134.99999999999847
51
44.999999999996923
0
LINE
5
325
100
AcDbEntity
8
0
100
AcDbLine
10
326.70558568298588
20
378.64855069032239
30
0
11
332.72030430874736
21
378.64855069032251
31
0
0
LINE
5
326
100
AcDbEntity
8
0
100
AcDbLine
10
336.96294499586668
20
374.4059100032033
30
0
11
336.96294499586702
21
363.89119137744206
31
0
0
LINE
5
327
100
AcDbEntity
8
0
100
AcDbLine
10
322.46294499586736
20
363.89119137744171
30
0
11
322.46294499586679
21
374.40591000320296
31
0
0
LINE
5
328
100
AcDbEntity
8
0
100
AcDbLine
10
620.99169030874862
20
359.64855069032535
30
0
11
614.97697168298782
21
359.64855069032535
31
0
0
LINE
5
329
100
AcDbEntity
8
0
100
AcDbLine
10
625.23433099586828
20
374.40591000320586
30
0
11
625.23433099586794
21
363.89119137744456
31
0
0
LINE
5
330
100
AcDbEntity
8
0
100
AcDbLine
10
598.23433099586373
20
14.428075690303572
30
0
11
590.29507756602038
21
14.428075690303757
31
0
0
LWPOLYLINE
5
331
100
AcDbEntity
8
0
100
AcDbPolyline
90
12
70
1
43
0.0
10
82.700306926856939
20
604.08710808645958
42
-0.41421356237309293
10
102.70030692685658
20
584.08710808646003
10
102.70030692685594
20
29.087108086463616
10
127.70030692684763
20
29.087108086461342
10
127.70030692685421
20
609.08710808645924
42
0.41421356237309503
10
107.70030692685413
20
629.08710808645935
10
-77.071079073145583
20
629.08710808645947
42
0.41421356237309293
10
-97.071079073145583
20
609.08710808645947
10
-97.071079073145583
20
29.087108086460702
10
-72.071079073145654
20
29.087108086460702
10
-72.071079073145583
20
584.08710808645969
42
-0.41421356237309503
10
-52.071079073145583
20
604.08710808645969
0
LINE
5
332
100
AcDbEntity
8
0
100
AcDbLine
10
-80.812948573148162
20
313.84446739934157
30
0
11
-80.812948573148375
21
303.3297487735768
31
0
0
ARC
5
333
100
AcDbEntity
8
0
100
AcDbCircle
10
113.56349677037493
20
301.20842843001287
30
0
40
2.9999999999999689
210
0
220
0
230
1
100
AcDbArc
50
134.999999999919
51
314.99999999991883
0
ARC
5
334
100
AcDbEntity
8
0
100
AcDbCircle
10
119.82085608327625
20
315.96578774288622
30
0
40
2.9999999999999689
210
-0
220
0
230
1
100
AcDbArc
50
-45.000000000084427
51
134.99999999991422
0
ARC
5
335
100
AcDbEntity
8
0
100
AcDbCircle
10
113.56349677039582
20
315.96578774289571
30
0
40
2.9999999999999689
210
0
220
-0
230
1
100
AcDbArc
50
44.999999999912681
51
224.99999999991977
0
LINE
5
336
100
AcDbEntity
8
0
100
AcDbLine
10
115.68481711395864
20
318.08710808645208
30
0
11
117.69953573971982
21
318.08710808644901
31
0
0
ARC
5
337
100
AcDbEntity
8
0
100
AcDbCircle
10
119.82085608325409
20
301.20842843000764
30
0
40
2.9999999999999942
210
0
220
0
230
1
100
AcDbArc
50
-135.00000000004681
51
44.999999999914408
0
LINE
5
338
100
AcDbEntity
8
0
100
AcDbLine
10
117.69953573969272
20
299.08710808644975
30
0
11
115.68481711393159
21
299.0871080864502
31
0
0
ARC
5
339
100
AcDbEntity
8
0
100
AcDbCircle
10
-89.191628229585405
20
315.9657877428927
30
0
40
2.9999999999999942
210
0
220
-0
230
1
100
AcDbArc
50
45.000000000077534
51
225.00000000008345
0
LINE
5
340
100
AcDbEntity
8
0
100
AcDbLine
10
-87.070307886028644
20
318.0871080864552
30
0
11
-85.055589260267368
21
318.08710808646094
31
0
0
ARC
5
341
100
AcDbEntity
8
0
100
AcDbCircle
10
-82.934268916707765
20
315.96578774290128
30
0
40
3.0000000000000195
210
-0
220
0
230
1
100
AcDbArc
50
-45.000000000001528
51
134.99999999999923
0
ARC
5
342
100
AcDbEntity
8
0
100
AcDbCircle
10
-89.191628229564017
20
301.20842843001378
30
0
40
3.0000000000000444
210
0
220
0
230
1
100
AcDbArc
50
135.00000000008291
51
315.0000000000307
0
LINE
5
343
100
AcDbEntity
8
0
100
AcDbLine
10
111.44217642681831
20
303.32974877357549
30
0
11
111.44217642683323
21
313.84446739933907
31
0
0
ARC
5
344
100
AcDbEntity
8
0
100
AcDbCircle
10
-82.934268916708049
20
301.20842843001719
30
0
40
2.9999999999999938
210
0
220
0
230
1
100
AcDbArc
50
-134.99999999996854
51
44.999999999999041
0
LINE
5
345
100
AcDbEntity
8
0
100
AcDbLine
10
-91.312948573126747
20
303.32974877357037
30
0
11
-91.312948573141952
21
313.84446739932997
31
0
0
LINE
5
346
100
AcDbEntity
8
0
100
AcDbLine
10
-85.055589260266515
20
299.0871080864564
30
0
11
-87.070307886003278
21
299.08710808645532
31
0
0
LINE
5
347
100
AcDbEntity
8
0
100
AcDbLine
10
121.94217642683273
20
313.84446739932349
30
0
11
121.9421764268169
21
303.32974877356412
31
0
0
LINE
5
348
100
AcDbEntity
8
0
100
AcDbLine
10
-104.8171565979459
20
-467.7068533334741
30
0
11
-98.817156597945882
21
-467.70685333347399
31
0
0
LINE
5
349
100
AcDbEntity
8
0
100
AcDbLine
10
95.498428193210728
20
-452.94018627348828
30
0
11
95.498428193210728
21
-465.70685333347399
31
0
0
LINE
5
350
100
AcDbEntity
8
0
100
AcDbLine
10
-87.317157141448135
20
-203.73441157355524
30
0
11
85.998428736712953
21
-203.73441157355472
31
0
0
LINE
5
351
100
AcDbEntity
8
0
100
AcDbLine
10
-92.583864587260223
20
-448.6882379292544
30
0
11
-89.317157141769457
21
-448.67387296708989
31
0
0
LWPOLYLINE
5
352
100
AcDbEntity
8
0
100
AcDbPolyline
90
8
70
1
43
0.0
10
9.9623755117731374
20
-431.14670667382666
10
9.962375511773141
20
-420.14670667382677
42
0.41421356237309631
10
5.9623755117731534
20
-416.14670667382666
10
-5.0376244882268164
20
-416.14670667382666
42
0.41421356237309398
10
-10.037624488226806
20
-421.14670667382666
10
-10.037624488226825
20
-432.14670667382671
42
0.41421356237309631
10
-6.0376244882268226
20
-436.14670667382666
10
4.9623755117731516
20
-436.14670667382666
42
0.41421356237309398
0
LINE
5
353
100
AcDbEntity
8
0
100
AcDbLine
10
-89.317157141769457
20
-448.67387296708989
30
0
11
-89.317157141752432
21
-437.90703578027518
31
0
0
LINE
5
354
100
AcDbEntity
8
0
100
AcDbLine
10
-114.08666346637295
20
-385.15052889806469
30
0
11
-113.71334263687602
21
-448.73010388037142
31
0
0
LINE
5
355
100
AcDbEntity
8
0
100
AcDbLine
10
111.24668231184944
20
-178.73441157355495
30
0
11
-112.56541071658462
21
-178.73441157355515
31
0
0
LINE
5
356
100
AcDbEntity
8
0
100
AcDbLine
10
-96.81715659794591
20
-465.70685333347399
30
0
11
-96.81715659794591
21
-452.94018627348828
31
0
0
LWPOLYLINE
5
357
100
AcDbEntity
8
0
100
AcDbPolyline
90
8
70
1
43
0.0
10
-73.923248677692314
20
-394.4217544060366
10
-73.923248677692229
20
-272.58456611430296
42
0.99999999999999989
10
-78.16588936481142
20
-268.34192542718364
10
-85.074516454414564
20
-268.34192542718347
42
0.99999999999999989
10
-89.31715714153377
20
-272.58456611430296
10
-89.31715714169772
20
-394.42175440603393
42
0.99999999999999989
10
-85.074516454581257
20
-398.66439509315597
10
-78.16588936481152
20
-398.66439509315597
42
0.99999999999999989
0
LINE
5
358
100
AcDbEntity
8
0
100
AcDbLine
10
73.076751322307643
20
-394.42175440603671
30
0
11
73.076751322307686
21
-272.58456611430285
31
0
0
LINE
5
359
100
AcDbEntity
8
0
100
AcDbLine
10
87.998428736801415
20
-272.58456611430006
30
0
11
87.998428736962566
21
-394.42175440603398
31
0
0
LWPOLYLINE
5
360
100
AcDbEntity
8
0
100
AcDbPolyline
90
8
70
1
43
0.0
10
-45.037624488226768
20
-323.14620667382684
10
-55.03762448822674
20
-323.14620667382684
42
0.41421356237310336
10
-60.03762448822674
20
-328.14620667382684
10
-60.03762448822674
20
-338.14620667382684
42
0.41421356237309398
10
-55.037624488226754
20
-343.14620667382684
10
-45.037624488226768
20
-343.14620667382684
42
0.41421356237309398
10
-40.037624488226783
20
-338.14620667382684
10
-40.037624488226776
20
-328.14620667382684
42
0.41421356237310386
0
ARC
5
361
100
AcDbEntity
8
0
100
AcDbCircle
10
-87.195836798192801
20
-435.78571543671558
30
0
40
2.9999999999999689
210
0
220
-0
230
1
100
AcDbArc
50
44.999999999999609
51
224.9999999999996
0
ARC
5
362
100
AcDbEntity
8
0
100
AcDbCircle
10
-68.923248677692342
20
-443.57620028651007
30
0
40
5.0000000000000089
210
0
220
0
230
1
100
AcDbArc
50
180
51
270
0
ARC
5
363
100
AcDbEntity
8
0
100
AcDbCircle
10
-76.044569021251874
20
-435.78571543671558
30
0
40
2.9999999999999938
210
-0
220
0
230
1
100
AcDbArc
50
-45.000000000003261
51
135.00000000000077
0
LINE
5
364
100
AcDbEntity
8
0
100
AcDbLine
10
-73.923248677692342
20
-437.90703578027535
30
0
11
-73.923248677692342
21
-443.57620028651007
31
0
0
ARC
5
365
100
AcDbEntity
8
0
100
AcDbCircle
10
-116.43847748501105
20
-343.78759194743975
30
0
40
3.0000000000000164
210
0
220
0
230
1
100
AcDbArc
50
-134.6387812860583
51
45.000000000089997
0
LWPOLYLINE
5
366
100
AcDbEntity
8
0
100
AcDbPolyline
90
8
70
1
43
0.0
10
4.9623755117731516
20
-369.64645667382683
10
-5.0376244882268164
20
-369.64645667382683
42
0.41421356237309398
10
-10.03762448822679
20
-374.64645667382678
10
-10.037624488226795
20
-384.64645667382678
42
0.41421356237309398
10
-5.0376244882268164
20
-389.64645667382678
10
4.9623755117731516
20
-389.64645667382678
42
0.41421356237308982
10
9.9623755117731285
20
-384.64645667382683
10
9.9623755117731463
20
-374.64645667382678
42
0.41421356237309398
0
LINE
5
367
100
AcDbEntity
8
0
100
AcDbLine
10
87.998428737020049
20
-437.90703578027239
30
0
11
87.998428737034288
21
-448.67387296708989
31
0
0
LINE
5
368
100
AcDbEntity
8
0
100
AcDbLine
10
87.998428737034288
20
-448.67387296708989
30
0
11
91.26513618252504
21
-448.6882379292544
31
0
0
LWPOLYLINE
5
369
100
AcDbEntity
8
0
100
AcDbPolyline
90
8
70
1
43
0.0
10
-55.037624488226754
20
-436.14670667382666
10
-45.037624488226768
20
-436.14670667382666
42
0.41421356237309398
10
-40.037624488226797
20
-431.14670667382666
10
-40.037624488226776
20
-421.14670667382666
42
0.41421356237309453
10
-45.037624488226776
20
-416.14670667382666
10
-55.03762448822674
20
-416.14670667382666
42
0.41421356237309398
10
-60.037624488226726
20
-421.14670667382666
10
-60.037624488226726
20
-431.14670667382666
42
0.41421356237309348
0
LWPOLYLINE
5
370
100
AcDbEntity
8
0
100
AcDbPolyline
90
8
70
1
43
0.0
10
9.962375511773164
20
-291.64595667382696
42
-0.41421356237310386
10
4.9623755117731561
20
-296.64595667382696
10
-5.0376244882268209
20
-296.6459566738269
42
-0.41421356237310364
10
-10.037624488226795
20
-291.64595667382696
10
-10.037624488226808
20
-281.64595667382696
42
-0.41421356237310336
10
-5.0376244882268075
20
-276.64595667382696
10
4.9623755117731552
20
-276.64595667382696
42
-0.41421356237310336
10
9.9623755117731498
20
-281.64595667382696
0
LWPOLYLINE
5
371
100
AcDbEntity
8
0
100
AcDbPolyline
90
8
70
1
43
0.0
10
-45.037624488226768
20
-230.14570667382708
42
-0.41421356237310386
10
-40.037624488226776
20
-235.14570667382702
10
-40.037624488226768
20
-245.14570667382702
42
-0.41421356237310336
10
-45.037624488226768
20
-250.14570667382702
10
-55.03762448822674
20
-250.14570667382699
42
-0.41421356237310442
10
-60.037624488226726
20
-245.14570667382702
10
-60.03762448822674
20
-235.14570667382702
42
-0.41421356237310336
10
-55.03762448822674
20
-230.14570667382702
0
ARC
5
372
100
AcDbEntity
8
0
100
AcDbCircle
10
-87.195836797922226
20
-231.22060508362387
30
0
40
2.9999999999999938
210
0
220
0
230
1
100
AcDbArc
50
134.9999999999263
51
314.99999999999864
0
ARC
5
373
100
AcDbEntity
8
0
100
AcDbCircle
10
-106.94583679759975
20
-198.5025707198181
30
0
40
3.0000000000000693
210
0
220
0
230
1
100
AcDbArc
50
134.9999999999313
51
314.99999999985437
0
ARC
5
374
100
AcDbEntity
8
0
100
AcDbCircle
10
-87.317157141448106
20
-205.73441157355489
30
0
40
1.9999999999996732
210
0
220
0
230
1
100
AcDbArc
50
90.00000000000081
51
180
0
LWPOLYLINE
5
375
100
AcDbEntity
8
0
100
AcDbPolyline
90
8
70
1
43
0.0
10
9.9623755117731339
20
-338.14620667382684
42
-0.41421356237309398
10
4.9623755117731516
20
-343.14620667382684
10
-5.0376244882268209
20
-343.14620667382684
42
-0.41421356237309426
10
-10.037624488226811
20
-338.14620667382684
10
-10.037624488226822
20
-328.14620667382684
42
-0.41421356237310336
10
-5.0376244882268209
20
-323.14620667382684
10
4.9623755117731552
20
-323.14620667382684
42
-0.41421356237310336
10
9.9623755117731498
20
-328.14620667382684
0
ARC
5
376
100
AcDbEntity
8
0
100
AcDbCircle
10
-68.923248677692314
20
-223.43012023382931
30
0
40
4.9999999999999289
210
0
220
-0
230
1
100
AcDbArc
50
89.999999999999844
51
180
0
ARC
5
377
100
AcDbEntity
8
0
100
AcDbCircle
10
-106.94583679758267
20
-183.74521140697411
30
0
40
2.9999999999999689
210
0
220
-0
230
1
100
AcDbArc
50
45.000000000011127
51
224.99999999993284
0
ARC
5
378
100
AcDbEntity
8
0
100
AcDbCircle
10
-95.688477484721375
20
-198.50257071984635
30
0
40
3.0000000000000067
210
0
220
0
230
1
100
AcDbArc
50
-135.00000000014487
51
44.999999999995595
0
ARC
5
379
100
AcDbEntity
8
0
100
AcDbCircle
10
-112.56541071658461
20
-180.73441157355461
30
0
40
1.99999999999946
210
0
220
0
230
1
100
AcDbArc
50
90.000000000000398
51
180.26032886012922
0
ARC
5
380
100
AcDbEntity
8
0
100
AcDbCircle
10
-116.60455544119735
20
-198.82968212966844
30
0
40
2.9999999999999987
210
-0
220
0
230
1
100
AcDbArc
50
-44.739671139871547
51
45.260328860126904
0
LINE
5
381
100
AcDbEntity
8
0
100
AcDbLine
10
-114.47361860521838
20
-200.94134218779047
30
0
11
-114.47361773505131
21
-200.94153370155297
31
0
0
ARC
5
382
100
AcDbEntity
8
0
100
AcDbCircle
10
-116.60455544119735
20
-198.82968212966844
30
0
40
3.0000000000000004
210
0
220
0
230
1
100
AcDbArc
50
225.25515635127715
51
315.25515635127471
0
LINE
5
383
100
AcDbEntity
8
0
100
AcDbLine
10
-118.71640786595954
20
-200.96042832197435
30
0
11
-139.47336983489731
21
-201.05286629448813
31
0
0
LINE
5
384
100
AcDbEntity
8
0
100
AcDbLine
10
-114.47361773505131
20
-200.94153370155297
30
0
11
-114.47380924889157
21
-200.94153455443069
31
0
0
ARC
5
385
100
AcDbEntity
8
0
100
AcDbCircle
10
-95.688477484720593
20
-183.74521140697146
30
0
40
3.0000000000000444
210
0
220
0
230
1
100
AcDbArc
50
-45.000000000004015
51
134.99999999999636
0
ARC
5
386
100
AcDbEntity
8
0
100
AcDbCircle
10
-76.044569021251846
20
-231.22060508362395
30
0
40
3.0000000000000067
210
0
220
0
230
1
100
AcDbArc
50
-135.00000000000117
51
45.000000000000959
0
LINE
5
387
100
AcDbEntity
8
0
100
AcDbLine
10
-106.82432066245144
20
-448.70687748717546
30
0
11
-106.81715659794598
21
-448.70685333347416
31
0
0
LINE
5
388
100
AcDbEntity
8
0
100
AcDbLine
10
-113.71334263687602
20
-448.73010388037142
30
0
11
-111.06693723658653
21
-448.72118150320216
31
0
0
LINE
5
389
100
AcDbEntity
8
0
100
AcDbLine
10
-118.5463819896205
20
-345.92224381588278
30
0
11
-139.31882668124271
21
-346.05320451198816
31
0
0
LINE
5
390
100
AcDbEntity
8
0
100
AcDbLine
10
-106.81715659794598
20
-448.70685333347416
30
0
11
-106.81715659794597
21
-448.71401743869671
31
0
0
LWPOLYLINE
5
391
100
AcDbEntity
8
0
100
AcDbPolyline
90
8
70
1
43
0.0
10
-55.03762448822674
20
-296.64595667382696
10
-45.037624488226768
20
-296.64595667382696
42
0.41421356237310336
10
-40.037624488226776
20
-291.64595667382696
10
-40.037624488226776
20
-281.64595667382696
42
0.41421356237310386
10
-45.037624488226768
20
-276.64595667382696
10
-55.03762448822674
20
-276.64595667382696
42
0.41421356237310336
10
-60.037624488226704
20
-281.64595667382696
10
-60.037624488226704
20
-291.64595667382696
42
0.41421356237310336
0
LWPOLYLINE
5
392
100
AcDbEntity
8
0
100
AcDbPolyline
90
8
70
1
43
0.0
10
39.962375511773125
20
-421.14670667382666
42
-0.41421356237309398
10
44.962375511773104
20
-416.14670667382666
10
54.962375511773082
20
-416.14670667382677
42
-0.41421356237309709
10
59.962375511773061
20
-421.14670667382666
10
59.962375511773061
20
-431.14670667382666
42
-0.41421356237309398
10
54.962375511773082
20
-436.14670667382666
10
44.962375511773097
20
-436.14670667382666
42
-0.41421356237309503
10
39.962375511773111
20
-431.14670667382666
0
ARC
5
393
100
AcDbEntity
8
0
100
AcDbCircle
10
93.377107849651097
20
-450.81886592992862
30
0
40
3.0000000000000195
210
-0
220
0
230
1
100
AcDbArc
50
-45.000000000000355
51
134.74805016562385
0
ARC
5
394
100
AcDbEntity
8
0
100
AcDbCircle
10
107.61974853677037
20
-450.83533778225637
30
0
40
2.9999999999999938
210
0
220
0
230
1
100
AcDbArc
50
134.99999999999923
51
225.00000000000077
0
ARC
5
395
100
AcDbEntity
8
0
100
AcDbCircle
10
85.877108393457604
20
-435.78571543671558
30
0
40
2.9999999999999938
210
0
220
0
230
1
100
AcDbArc
50
-44.999999999924022
51
135.0000000000004
0
ARC
5
396
100
AcDbEntity
8
0
100
AcDbCircle
10
107.61974853677037
20
-450.83533778225637
30
0
40
3.0000000000000404
210
0
220
-0
230
1
100
AcDbArc
50
44.806827548804094
51
134.80682754880374
0
ARC
5
397
100
AcDbEntity
8
0
100
AcDbCircle
10
75.198071665867246
20
-435.78571543671558
30
0
40
2.9999999999999565
210
0
220
-0
230
1
100
AcDbArc
50
44.999999999999609
51
224.9999999999996
0
LINE
5
398
100
AcDbEntity
8
0
100
AcDbLine
10
77.319392009426878
20
-433.66439509315597
30
0
11
83.755788049897973
21
-433.66439509315597
31
0
0
LWPOLYLINE
5
399
100
AcDbEntity
8
0
100
AcDbPolyline
90
8
70
1
43
0.0
10
44.962375511773104
20
-389.64645667382678
10
54.962375511773082
20
-389.64645667382678
42
0.41421356237309814
10
59.962375511773047
20
-384.64645667382678
10
59.962375511773061
20
-374.64645667382678
42
0.41421356237310125
10
54.962375511773082
20
-369.64645667382683
10
44.962375511773104
20
-369.64645667382683
42
0.41421356237309398
10
39.962375511773132
20
-374.64645667382678
10
39.962375511773132
20
-384.64645667382678
42
0.41421356237309398
0
LINE
5
400
100
AcDbEntity
8
0
100
AcDbLine
10
-114.56539007235727
20
-180.74349873378267
30
0
11
-114.49289538307528
21
-196.69874529368954
31
0
0
LINE
5
401
100
AcDbEntity
8
0
100
AcDbLine
10
-97.809797828286392
20
-200.62389106340063
30
0
11
-104.82451645404554
21
-200.6238910633831
31
0
0
LWPOLYLINE
5
402
100
AcDbEntity
8
0
100
AcDbPolyline
90
8
70
1
43
0.0
10
-60.037624488226733
20
-374.64645667382678
10
-60.03762448822674
20
-384.64645667382678
42
0.41421356237309398
10
-55.037624488226754
20
-389.64645667382678
10
-45.037624488226768
20
-389.64645667382678
42
0.41421356237309398
10
-40.037624488226797
20
-384.64645667382678
10
-40.037624488226776
20
-374.64645667382678
42
0.41421356237309398
10
-45.037624488226768
20
-369.64645667382683
10
-55.03762448822674
20
-369.64645667382683
42
0.41421356237309398
0
LINE
5
403
100
AcDbEntity
8
0
100
AcDbLine
10
-93.567157141161061
20
-185.86653175053129
30
0
11
-93.567157141161616
21
-196.38125037628691
31
0
0
LINE
5
404
100
AcDbEntity
8
0
100
AcDbLine
10
-109.06715714115691
20
-196.38125037625585
30
0
11
-109.06715714114478
21
-185.86653175053124
31
0
0
LINE
5
405
100
AcDbEntity
8
0
100
AcDbLine
10
-104.82451645402347
20
-181.62389106341408
30
0
11
-97.809797828280125
21
-181.62389106341166
31
0
0
ARC
5
406
100
AcDbEntity
8
0
100
AcDbCircle
10
115.36066818629622
20
-383.03659765914585
30
0
40
2.9999999999999831
210
0
220
-0
230
1
100
AcDbArc
50
44.800187457867494
51
224.26344376939903
0
LINE
5
407
100
AcDbEntity
8
0
100
AcDbLine
10
-144.28721842044803
20
-351.08246319108127
30
0
11
-144.14041549577601
21
-376.08419580103248
31
0
0
ARC
5
408
100
AcDbEntity
8
0
100
AcDbCircle
10
-139.33967178361888
20
-231.07478575285137
30
0
40
4.9999999999998908
210
0
220
0
230
1
100
AcDbArc
50
187.94705650576529
51
270.02613066404683
0
ARC
5
409
100
AcDbEntity
8
0
100
AcDbCircle
10
75.198071665867289
20
-396.54307474959637
30
0
40
3.0000000000000195
210
0
220
0
230
1
100
AcDbArc
50
134.9999999999998
51
314.99999999999903
0
LINE
5
410
100
AcDbEntity
8
0
100
AcDbLine
10
142.88234108666825
20
-376.01308569412078
30
0
11
142.97889557194264
21
-351.01139992152844
31
0
0
ARC
5
411
100
AcDbEntity
8
0
100
AcDbCircle
10
85.877108393405706
20
-396.54307474959637
30
0
40
3.0000000000000195
210
0
220
0
230
1
100
AcDbArc
50
-134.9999999999998
51
45.00000000007465
0
ARC
5
412
100
AcDbEntity
8
0
100
AcDbCircle
10
-139.45110331631022
20
-206.05281671445709
30
0
40
4.9999999999997851
210
0
220
0
230
1
100
AcDbArc
50
90.255156351275843
51
198.80108376735939
0
LINE
5
413
100
AcDbEntity
8
0
100
AcDbLine
10
-139.33739145308118
20
-236.07478523286048
30
0
11
-118.46256929596993
21
-235.98182238792805
31
0
0
LINE
5
414
100
AcDbEntity
8
0
100
AcDbLine
10
-139.11112205130109
20
-381.05475143982017
30
0
11
-118.3451688713275
21
-380.92383166970581
31
0
0
LINE
5
415
100
AcDbEntity
8
0
100
AcDbLine
10
-144.18431913726613
20
-207.66423472113647
30
0
11
-144.29165301976474
21
-231.76607573314769
31
0
0
ARC
5
416
100
AcDbEntity
8
0
100
AcDbCircle
10
-116.43847748517886
20
-238.19610609637459
30
0
40
3.0000000000000195
210
0
220
0
230
1
100
AcDbArc
50
-44.999999999909974
51
132.43064591350901
0
ARC
5
417
100
AcDbEntity
8
0
100
AcDbCircle
10
137.88237837229707
20
-375.99377624312342
30
0
40
4.999999999999952
210
0
220
0
230
1
100
AcDbArc
50
269.80018745786612
51
359.77872944061255
0
LINE
5
418
100
AcDbEntity
8
0
100
AcDbLine
10
112.39461423214084
20
-448.73010388037142
30
0
11
113.21225359972902
21
-385.13047319609291
31
0
0
LINE
5
419
100
AcDbEntity
8
0
100
AcDbLine
10
117.48937347971867
20
-380.92268806463733
30
0
11
137.86494147390624
21
-380.99374583848834
31
0
0
LINE
5
420
100
AcDbEntity
8
0
100
AcDbLine
10
105.49842819321071
20
-465.70685333347404
30
0
11
105.49842819321077
21
-452.95665812581603
31
0
0
LINE
5
421
100
AcDbEntity
8
0
100
AcDbLine
10
-85.074516454633169
20
-433.66439509315597
30
0
11
-78.165889364811534
21
-433.66439509315597
31
0
0
ARC
5
422
100
AcDbEntity
8
0
100
AcDbCircle
10
-139.28730461066658
20
-351.05310514690751
30
0
40
5.0000000000000391
210
0
220
0
230
1
100
AcDbArc
50
90.361218713943444
51
180.33642033826109
0
LINE
5
423
100
AcDbEntity
8
0
100
AcDbLine
10
-68.923248677692342
20
-448.57620028651007
30
0
11
68.076751322307615
21
-448.57620028651013
31
0
0
LINE
5
424
100
AcDbEntity
8
0
100
AcDbLine
10
97.498428193210714
20
-467.70685333347399
30
0
11
103.4984281932107
21
-467.7068533334741
31
0
0
LINE
5
425
100
AcDbEntity
8
0
100
AcDbLine
10
68.076751322307715
20
-218.4301202338294
30
0
11
-68.9232486776923
21
-218.4301202338294
31
0
0
LINE
5
426
100
AcDbEntity
8
0
100
AcDbLine
10
-106.81715659794597
20
-452.95665812581603
30
0
11
-106.81715659794591
21
-465.70685333347404
31
0
0
LINE
5
427
100
AcDbEntity
8
0
100
AcDbLine
10
109.74820883185131
20
-448.72118150320216
30
0
11
112.39461423214084
21
-448.73010388037142
31
0
0
LINE
5
428
100
AcDbEntity
8
0
100
AcDbLine
10
105.49842819321074
20
-448.70685333347416
30
0
11
105.50559225771622
21
-448.70687748717546
31
0
0
ARC
5
429
100
AcDbEntity
8
0
100
AcDbCircle
10
68.076751322307615
20
-443.57620028651013
30
0
40
5
210
-0
220
0
230
1
100
AcDbArc
50
-90
51
0
0
LINE
5
430
100
AcDbEntity
8
0
100
AcDbLine
10
105.49842819321077
20
-448.71401743869671
30
0
11
105.49842819321074
21
-448.70685333347416
31
0
0
LWPOLYLINE
5
431
100
AcDbEntity
8
0
100
AcDbPolyline
90
8
70
1
43
0.0
10
54.962375511773082
20
-230.14570667382702
10
44.962375511773104
20
-230.14570667382702
42
0.41421356237310281
10
39.962375511773146
20
-235.14570667382702
10
39.962375511773132
20
-245.14570667382702
42
0.41421356237310386
10
44.962375511773097
20
-250.14570667382702
10
54.962375511773082
20
-250.14570667382702
42
0.41421356237310231
10
59.962375511773047
20
-245.14570667382702
10
59.962375511773061
20
-235.14570667382702
42
0.41421356237310336
0
LINE
5
432
100
AcDbEntity
8
0
100
AcDbLine
10
113.15508084415633
20
-200.94153455443069
30
0
11
113.1548893303161
21
-200.94153370155297
31
0
0
LINE
5
433
100
AcDbEntity
8
0
100
AcDbLine
10
103.50578804931034
20
-200.62389106338316
30
0
11
96.491069423545895
21
-200.62389106340595
31
0
0
LINE
5
434
100
AcDbEntity
8
0
100
AcDbLine
10
107.74842873640956
20
-185.86653175053129
30
0
11
107.74842873642172
21
-196.38125037625585
31
0
0
LINE
5
435
100
AcDbEntity
8
0
100
AcDbLine
10
138.15464143016214
20
-201.05286629448807
30
0
11
117.39767946122436
21
-200.96042832197435
31
0
0
LINE
5
436
100
AcDbEntity
8
0
100
AcDbLine
10
113.1548893303161
20
-200.94153370155297
30
0
11
113.15489020048319
21
-200.94134218779055
31
0
0
ARC
5
437
100
AcDbEntity
8
0
100
AcDbCircle
10
138.02094337888371
20
-231.07478575285137
30
0
40
4.9999999999999893
210
0
220
0
230
1
100
AcDbArc
50
269.97384996450472
51
359.74484364872524
0
LWPOLYLINE
5
438
100
AcDbEntity
8
0
100
AcDbPolyline
90
8
70
1
43
0.0
10
9.9623755117731587
20
-245.14570667382702
10
9.9623755117731498
20
-235.14570667382702
42
0.41421356237310336
10
4.9623755117731561
20
-230.14570667382702
10
-5.037624488226812
20
-230.14570667382702
42
0.41421356237310364
10
-10.037624488226783
20
-235.14570667382702
10
-10.037624488226786
20
-245.14570667382702
42
0.41421356237310364
10
-5.037624488226812
20
-250.14570667382702
10
4.9623755117731561
20
-250.14570667382702
42
0.41421356237310386
0
LWPOLYLINE
5
439
100
AcDbEntity
8
0
100
AcDbPolyline
90
8
70
1
43
0.0
10
39.962375511773146
20
-281.64595667382696
10
39.962375511773132
20
-291.64595667382696
42
0.41421356237310386
10
44.962375511773097
20
-296.64595667382696
10
54.962375511773082
20
-296.64595667382696
42
0.41421356237310231
10
59.962375511773025
20
-291.64595667382696
10
59.962375511773061
20
-281.64595667382696
42
0.41421356237310336
10
54.962375511773082
20
-276.64595667382696
10
44.962375511773104
20
-276.64595667382696
42
0.41421356237310281
0
LINE
5
440
100
AcDbEntity
8
0
100
AcDbLine
10
112.99842873671962
20
-341.66111636231619
30
0
11
112.9984287368807
21
-240.3174264399309
31
0
0
LINE
5
441
100
AcDbEntity
8
0
100
AcDbLine
10
77.319392009426892
20
-268.34192542718347
30
0
11
83.755788049676624
21
-268.34192542718625
31
0
0
ARC
5
442
100
AcDbEntity
8
0
100
AcDbCircle
10
115.11974908027584
20
-343.78243670587921
30
0
40
2.9999999999999689
210
0
220
0
230
1
100
AcDbArc
50
134.99999999990828
51
314.77872944061284
0
ARC
5
443
100
AcDbEntity
8
0
100
AcDbCircle
10
115.28582703646217
20
-198.82968212966853
30
0
40
3.000000000000036
210
0
220
0
230
1
100
AcDbArc
50
134.73967113987217
51
224.73967113987155
0
LINE
5
444
100
AcDbEntity
8
0
100
AcDbLine
10
137.99824230856888
20
-345.99212775615996
30
0
11
117.23286129863816
21
-345.911933536731
31
0
0
LINE
5
445
100
AcDbEntity
8
0
100
AcDbLine
10
83.755788049627498
20
-233.34192542718355
30
0
11
77.319392009426934
21
-233.34192542718355
31
0
0
LINE
5
446
100
AcDbEntity
8
0
100
AcDbLine
10
87.998428736713038
20
-205.73441157355475
30
0
11
87.998428736746746
21
-229.09928474006435
31
0
0
ARC
5
447
100
AcDbEntity
8
0
100
AcDbCircle
10
137.97893285757155
20
-350.99209047053102
30
0
40
4.9999999999998908
210
-0
220
0
230
1
100
AcDbArc
50
-0.22127055938747972
51
89.77872944061329
0
ARC
5
448
100
AcDbEntity
8
0
100
AcDbCircle
10
75.198071665867317
20
-231.22060508362395
30
0
40
3.000000000000032
210
0
220
0
230
1
100
AcDbArc
50
134.99999999999943
51
315.00000000000017
0
LINE
5
449
100
AcDbEntity
8
0
100
AcDbLine
10
113.17416697834008
20
-196.69874529368954
30
0
11
113.24666166762231
21
-180.74349873378267
31
0
0
ARC
5
450
100
AcDbEntity
8
0
100
AcDbCircle
10
115.11974908044367
20
-238.19610609637459
30
0
40
3.0000000000006204
210
0
220
-0
230
1
100
AcDbArc
50
47.569353894280283
51
224.99999999990996
0
LINE
5
451
100
AcDbEntity
8
0
100
AcDbLine
10
117.14384089866307
20
-235.98182239471822
30
0
11
138.01866135786841
21
-236.07478523208931
31
0
0
LINE
5
452
100
AcDbEntity
8
0
100
AcDbLine
10
92.248428736426433
20
-196.38125037628674
30
0
11
92.248428736425865
21
-185.86653175053135
31
0
0
ARC
5
453
100
AcDbEntity
8
0
100
AcDbCircle
10
105.6271083928645
20
-198.50257071981801
30
0
40
3.0000000000000067
210
0
220
0
230
1
100
AcDbArc
50
-134.99999999985167
51
45.000000000066784
0
ARC
5
454
100
AcDbEntity
8
0
100
AcDbCircle
10
75.198071665867317
20
-270.46324577074313
30
0
40
2.9999999999999689
210
0
220
-0
230
1
100
AcDbArc
50
45.000000000001151
51
225.00000000000117
0
ARC
5
455
100
AcDbEntity
8
0
100
AcDbCircle
10
105.62710839284749
20
-183.74521140697402
30
0
40
3.000000000000032
210
0
220
0
230
1
100
AcDbArc
50
-44.999999999935113
51
134.99999999998906
0
ARC
5
456
100
AcDbEntity
8
0
100
AcDbCircle
10
68.076751322307729
20
-223.4301202338294
30
0
40
4.9999999999999645
210
0
220
-0
230
1
100
AcDbArc
50
0
51
90.000000000000171
0
ARC
5
457
100
AcDbEntity
8
0
100
AcDbCircle
10
94.369749079986164
20
-198.50257071984635
30
0
40
3.000000000000032
210
0
220
0
230
1
100
AcDbArc
50
135.00000000000173
51
315.00000000000171
0
LINE
5
458
100
AcDbEntity
8
0
100
AcDbLine
10
143.02089379885288
20
-231.09705227143849
30
0
11
143.13232533154419
21
-206.07508323304415
31
0
0
ARC
5
459
100
AcDbEntity
8
0
100
AcDbCircle
10
85.877108393239027
20
-270.46324577074313
30
0
40
3.0000000000000067
210
0
220
0
230
1
100
AcDbArc
50
-44.999999999926317
51
135.00000000007464
0
ARC
5
460
100
AcDbEntity
8
0
100
AcDbCircle
10
85.998428736712938
20
-205.73441157355484
30
0
40
2.0000000000000995
210
0
220
-0
230
1
100
AcDbArc
50
0
51
89.999999999999588
0
ARC
5
461
100
AcDbEntity
8
0
100
AcDbCircle
10
94.369749079985382
20
-183.74521140697163
30
0
40
3.0000000000000568
210
0
220
-0
230
1
100
AcDbArc
50
44.999999999990216
51
225.0000000000027
0
ARC
5
462
100
AcDbEntity
8
0
100
AcDbCircle
10
111.24668231184943
20
-180.73441157355461
30
0
40
1.9999999999996816
210
-0
220
0
230
1
100
AcDbArc
50
-0.26032886012921724
51
89.999999999999588
0
LINE
5
463
100
AcDbEntity
8
0
100
AcDbLine
10
96.491069423545426
20
-181.62389106341232
30
0
11
103.5057880492883
21
-181.62389106341402
31
0
0
ARC
5
464
100
AcDbEntity
8
0
100
AcDbCircle
10
115.28582703646217
20
-198.82968212966853
30
0
40
2.9999999999999627
210
0
220
0
230
1
100
AcDbArc
50
224.74484364872342
51
314.74484364872393
0
ARC
5
465
100
AcDbEntity
8
0
100
AcDbCircle
10
85.877108393187115
20
-231.22060508362395
30
0
40
2.9999999999999565
210
0
220
0
230
1
100
AcDbArc
50
-135.0000000000002
51
44.999999999999609
0
LINE
5
466
100
AcDbEntity
8
0
100
AcDbLine
10
73.076751322307672
20
-229.09928474006426
30
0
11
73.0767513223077
21
-223.4301202338294
31
0
0
ARC
5
467
100
AcDbEntity
8
0
100
AcDbCircle
10
138.13237491157506
20
-206.05281671445709
30
0
40
4.9999999999999627
210
-0
220
0
230
1
100
AcDbArc
50
-0.25515635127477454
51
89.744843648724171
0
ARC
5
468
100
AcDbEntity
8
0
100
AcDbCircle
10
-94.695836254386251
20
-450.81886592992868
30
0
40
3.0000000000000533
210
0
220
-0
230
1
100
AcDbArc
50
45.251949834377314
51
224.99999999999923
0
ARC
5
469
100
AcDbEntity
8
0
100
AcDbCircle
10
-108.93847694150563
20
-450.83533778225643
30
0
40
3.0000000000000782
210
0
220
-0
230
1
100
AcDbArc
50
45.193172451196673
51
135.19317245119458
0
ARC
5
470
100
AcDbEntity
8
0
100
AcDbCircle
10
-108.93847694150563
20
-450.83533778225643
30
0
40
2.9999999999999813
210
0
220
0
230
1
100
AcDbArc
50
-44.999999999999233
51
45.00000000000076
0
LINE
5
471
100
AcDbEntity
8
0
100
AcDbLine
10
73.076751322307615
20
-443.57620028651013
30
0
11
73.076751322307615
21
-437.90703578027518
31
0
0
LINE
5
472
100
AcDbEntity
8
0
100
AcDbLine
10
83.755788049846061
20
-398.66439509315603
30
0
11
77.319392009426878
21
-398.66439509315603
31
0
0
ARC
5
473
100
AcDbEntity
8
0
100
AcDbCircle
10
-116.2204028057903
20
-383.04170068518852
30
0
40
2.9999999999999649
210
0
220
0
230
1
100
AcDbArc
50
-44.663579661738574
51
135.0931429414866
0
ARC
5
474
100
AcDbEntity
8
0
100
AcDbCircle
10
-139.14050168599465
20
-376.05483775685866
30
0
40
5.0000000000000036
210
0
220
0
230
1
100
AcDbArc
50
180.33642033826223
51
270.33666775166182
0
LWPOLYLINE
5
475
100
AcDbEntity
8
0
100
AcDbPolyline
90
8
70
1
43
0.0
10
59.962375511773061
20
-338.14620667382684
42
-0.41421356237309398
10
54.962375511773082
20
-343.14620667382684
10
44.962375511773097
20
-343.14620667382684
42
-0.41421356237309503
10
39.962375511773111
20
-338.14620667382684
10
39.962375511773118
20
-328.14620667382684
42
-0.41421356237310281
10
44.962375511773104
20
-323.14620667382684
10
54.962375511773082
20
-323.14620667382684
42
-0.41421356237310336
10
59.962375511773061
20
-328.14620667382684
0
LINE
5
476
100
AcDbEntity
8
0
100
AcDbLine
10
-73.923248677692229
20
-223.43012023382931
30
0
11
-73.923248677692229
21
-229.09928474006426
31
0
0
LINE
5
477
100
AcDbEntity
8
0
100
AcDbLine
10
-114.31715714161589
20
-240.3174264399309
30
0
11
-114.31715714145476
21
-341.66627160387679
31
0
0
LINE
5
478
100
AcDbEntity
8
0
100
AcDbLine
10
-89.317157141479129
20
-229.09928474006151
30
0
11
-89.317157141447723
21
-205.73441157355475
31
0
0
LINE
5
479
100
AcDbEntity
8
0
100
AcDbLine
10
-78.165889364811534
20
-233.34192542718355
30
0
11
-85.074516454362637
21
-233.34192542718355
31
0
0
ARC
5
480
100
AcDbEntity
8
0
100
AcDbCircle
10
-104.8171565979458
20
-465.70685333347399
30
0
40
2.0000000000001172
210
0
220
0
230
1
100
AcDbArc
50
180
51
269.99999999999716
0
ARC
5
481
100
AcDbEntity
8
0
100
AcDbCircle
10
-98.817156597945953
20
-465.70685333347399
30
0
40
2.0000000000000284
210
-0
220
0
230
1
100
AcDbArc
50
-89.999999999997954
51
0
0
ARC
5
482
100
AcDbEntity
8
0
100
AcDbCircle
10
97.498428193210771
20
-465.70685333347399
30
0
40
2.0000000000000462
210
0
220
0
230
1
100
AcDbArc
50
180
51
269.99999999999835
0
ARC
5
483
100
AcDbEntity
8
0
100
AcDbCircle
10
103.4984281932106
20
-465.70685333347399
30
0
40
2.0000000000000995
210
-0
220
0
230
1
100
AcDbArc
50
270.00000000000284
51
360
0
LWPOLYLINE
5
484
100
AcDbEntity
8
0
100
AcDbPolyline
90
8
70
1
43
0.0
10
432.89930933791794
20
230.17695775201207
10
422.38459071215641
20
230.17695775201207
42
0.99999999999999989
10
418.1419500250372
20
225.93431706489281
10
418.1419500250372
20
193.91959843913139
42
0.99999999999999989
10
422.38459071215641
20
189.6769577520121
10
432.89930933791794
20
189.6769577520121
42
0.99999999999999989
10
437.14195002503715
20
193.91959843913139
10
437.14195002503715
20
225.93431706489281
42
0.99999999999999989
0
LWPOLYLINE
5
485
100
AcDbEntity
8
0
100
AcDbPolyline
90
18
70
1
43
0.0
10
416.6419500250372
20
39.302056439131547
42
-0.99999999999999989
10
412.399309337918
20
35.0594157520122
10
397.6419500250372
20
35.0594157520122
10
397.6419500250372
20
20.0594157520122
10
403.39930933791788
20
20.059415752012271
42
-0.99999999999999989
10
407.64195002503726
20
15.816775064892923
10
407.64195002503726
20
6.0594157520122138
42
0.41421356237309503
10
412.64195002503709
20
1.0594157520122849
10
442.6419500250372
20
1.0594157520122849
42
0.41421356237310336
10
447.6419500250372
20
6.0594157520122849
10
447.64195002503726
20
15.816775064892994
42
-0.99999999999999989
10
451.88459071215647
20
20.0594157520122
10
457.64195002503709
20
20.0594157520122
10
457.64195002503709
20
460.1769577520119
10
397.64195002503726
20
460.1769577520119
10
397.6419500250372
20
65.5594157520122
10
413.06163014191623
20
65.5594157520122
42
-0.87005197324563288
10
416.6419500250372
20
60.816775064892852
0
LWPOLYLINE
5
486
100
AcDbEntity
8
0
100
AcDbPolyline
90
8
70
1
43
0.0
10
523.12536460470358
20
223.91263810634604
10
512.61064597894222
20
223.91263810634604
42
0.99999999999999989
10
508.3680052918229
20
219.66999741922677
10
508.3680052918229
20
187.65527879346533
42
0.99999999999999989
10
512.61064597894222
20
183.41263810634604
10
523.12536460470358
20
183.41263810634604
42
0.99999999999999989
10
527.3680052918229
20
187.65527879346533
10
527.3680052918229
20
219.66999741922677
42
0.99999999999999989
0
LWPOLYLINE
5
487
100
AcDbEntity
8
0
100
AcDbPolyline
90
18
70
1
43
0.0
10
506.86800529182284
20
33.037736793465484
42
-0.99999999999999989
10
502.62536460470363
20
28.795096106346136
10
487.8680052918229
20
28.795096106346136
10
487.8680052918229
20
13.795096106346136
10
493.62536460470369
20
13.795096106346136
42
-0.99999999999999989
10
497.8680052918229
20
9.5524554192267885
10
497.8680052918229
20
-0.20490389365392048
42
0.41421356237309503
10
502.8680052918229
20
-5.2049038936538494
10
532.8680052918229
20
-5.2049038936538494
42
0.41421356237310752
10
537.8680052918229
20
-0.20490389365384942
10
537.8680052918229
20
9.5524554192267885
42
-0.99999999999999989
10
542.1106459789421
20
13.795096106346136
10
547.8680052918229
20
13.795096106346136
10
547.8680052918229
20
453.91263810634598
10
487.8680052918229
20
453.91263810634598
10
487.8680052918229
20
59.295096106346143
10
503.28768540870192
20
59.295096106346136
42
-0.87005197324562056
10
506.8680052918229
20
54.552455419226717
0
LINE
5
488
100
AcDbEntity
8
0
100
AcDbLine
10
-4.9485339981135823
20
38.335719203774374
30
0
11
-4.9485339981135468
21
48.093078516655083
31
0
0
LINE
5
489
100
AcDbEntity
8
0
100
AcDbLine
10
-15.948533998113454
20
71.578359890893637
30
0
11
-15.94853399811349
21
93.593078516654941
31
0
0
LINE
5
490
100
AcDbEntity
8
0
100
AcDbLine
10
-24.948533998113476
20
48.093078516655012
30
0
11
-24.948533998113547
21
38.335719203774445
31
0
0
LINE
5
491
100
AcDbEntity
8
0
100
AcDbLine
10
-19.948533998113511
20
33.335719203774516
30
0
11
-9.9485339981135823
21
33.335719203774516
31
0
0
LINE
5
492
100
AcDbEntity
8
0
100
AcDbLine
10
-11.705893310994249
20
97.835719203774232
30
0
11
3.0514660018864603
21
97.835719203774232
31
0
0
LINE
5
493
100
AcDbEntity
8
0
100
AcDbLine
10
-31.948533998113469
20
52.335719203774218
30
0
11
-29.191174685232717
21
52.335719203774218
31
0
0
LINE
5
494
100
AcDbEntity
8
0
100
AcDbLine
10
3.0514660018864603
20
97.835719203774232
30
0
11
3.0514660018864248
21
397.55619420377394
31
0
0
ARC
5
495
100
AcDbEntity
8
0
100
AcDbCircle
10
-13.827213654553816
20
69.457039547334034
30
0
40
2.9999999999999689
210
0
220
0
230
1
100
AcDbArc
50
135.00000000000048
51
315
0
LINE
5
496
100
AcDbEntity
8
0
100
AcDbLine
10
-0.70589331099427
20
52.335719203774289
30
0
11
3.0514660018864959
21
52.335719203774289
31
0
0
LINE
5
497
100
AcDbEntity
8
0
100
AcDbLine
10
3.0514660018864959
20
67.335719203774289
30
0
11
-11.705893310994213
21
67.335719203774431
31
0
0
LINE
5
498
100
AcDbEntity
8
0
100
AcDbLine
10
3.0514660018864248
20
397.55619420377394
30
0
11
-31.94853399811354
21
397.55619420377388
31
0
0
ARC
5
499
100
AcDbEntity
8
0
100
AcDbCircle
10
-27.069854341673114
20
50.214398860214544
30
0
40
2.9999999999999187
210
-0
220
0
230
1
100
AcDbArc
50
-44.999999999998572
51
134.99999999999903
0
ARC
5
500
100
AcDbEntity
8
0
100
AcDbCircle
10
-9.9485339981133691
20
38.335719203774303
30
0
40
4.9999999999997868
210
0
220
0
230
1
100
AcDbArc
50
-90.000000000002444
51
0
0
ARC
5
501
100
AcDbEntity
8
0
100
AcDbCircle
10
-13.827213654553852
20
95.714398860214587
30
0
40
2.9999999999999689
210
0
220
-0
230
1
100
AcDbArc
50
45.000000000000568
51
225.00000000000011
0
LINE
5
502
100
AcDbEntity
8
0
100
AcDbLine
10
-31.94853399811354
20
397.55619420377388
30
0
11
-31.948533998113469
21
52.335719203774218
31
0
0
LINE
5
503
100
AcDbEntity
8
0
100
AcDbLine
10
3.0514660018864959
20
52.335719203774289
30
0
11
3.0514660018864959
21
67.335719203774289
31
0
0
ARC
5
504
100
AcDbEntity
8
0
100
AcDbCircle
10
-2.8272136545539084
20
50.214398860214757
30
0
40
2.9999999999999187
210
0
220
-0
230
1
100
AcDbArc
50
44.99999999999855
51
225.00000000000045
0
ARC
5
505
100
AcDbEntity
8
0
100
AcDbCircle
10
-19.948533998113476
20
38.335719203774588
30
0
40
5.0000000000000711
210
0
220
0
230
1
100
AcDbArc
50
180
51
269.9999999999996
0
LINE
5
506
100
AcDbEntity
8
0
100
AcDbLine
10
62.553731061984443
20
37.805943557436095
30
0
11
62.553731061984479
21
47.563302870316804
31
0
0
LINE
5
507
100
AcDbEntity
8
0
100
AcDbLine
10
51.553731061984571
20
71.048584244555357
30
0
11
51.553731061984571
21
93.063302870316676
31
0
0
LINE
5
508
100
AcDbEntity
8
0
100
AcDbLine
10
42.55373106198455
20
47.563302870316733
30
0
11
42.553731061984479
21
37.805943557436166
31
0
0
LINE
5
509
100
AcDbEntity
8
0
100
AcDbLine
10
47.553731061984514
20
32.805943557436237
30
0
11
57.553731061984479
21
32.805943557436237
31
0
0
LINE
5
510
100
AcDbEntity
8
0
100
AcDbLine
10
55.796371749103848
20
97.305943557435938
30
0
11
70.553731061984521
21
97.305943557435938
31
0
0
LINE
5
511
100
AcDbEntity
8
0
100
AcDbLine
10
35.553731061984593
20
51.80594355743608
30
0
11
38.311090374865309
21
51.80594355743608
31
0
0
LINE
5
512
100
AcDbEntity
8
0
100
AcDbLine
10
70.553731061984521
20
97.305943557435938
30
0
11
70.553731061984521
21
397.02641855743548
31
0
0
ARC
5
513
100
AcDbEntity
8
0
100
AcDbCircle
10
53.67505140554421
20
68.927263900995754
30
0
40
2.9999999999999689
210
0
220
0
230
1
100
AcDbArc
50
135.00000000000048
51
315.00000000000045
0
LINE
5
514
100
AcDbEntity
8
0
100
AcDbLine
10
66.796371749103756
20
51.80594355743608
30
0
11
70.553731061984521
21
51.80594355743608
31
0
0
LINE
5
515
100
AcDbEntity
8
0
100
AcDbLine
10
70.553731061984521
20
66.805943557436009
30
0
11
55.796371749103848
21
66.805943557436152
31
0
0
LINE
5
516
100
AcDbEntity
8
0
100
AcDbLine
10
70.553731061984521
20
397.02641855743548
30
0
11
35.553731061984593
21
397.02641855743548
31
0
0
ARC
5
517
100
AcDbEntity
8
0
100
AcDbCircle
10
40.432410718424912
20
49.684623213876336
30
0
40
2.9999999999999689
210
-0
220
0
230
1
100
AcDbArc
50
-44.999999999999538
51
134.9999999999981
0
ARC
5
518
100
AcDbEntity
8
0
100
AcDbCircle
10
57.553731061984656
20
37.805943557436024
30
0
40
4.9999999999997868
210
0
220
0
230
1
100
AcDbArc
50
-90.000000000002032
51
0
0
ARC
5
519
100
AcDbEntity
8
0
100
AcDbCircle
10
53.67505140554421
20
95.184623213876307
30
0
40
2.9999999999999942
210
0
220
-0
230
1
100
AcDbArc
50
44.999999999999901
51
224.99999999999989
0
LINE
5
520
100
AcDbEntity
8
0
100
AcDbLine
10
35.553731061984593
20
397.02641855743548
30
0
11
35.553731061984593
21
51.80594355743608
31
0
0
LINE
5
521
100
AcDbEntity
8
0
100
AcDbLine
10
70.553731061984521
20
51.80594355743608
30
0
11
70.553731061984521
21
66.805943557436009
31
0
0
ARC
5
522
100
AcDbEntity
8
0
100
AcDbCircle
10
64.67505140554411
20
49.684623213876478
30
0
40
2.9999999999999689
210
0
220
-0
230
1
100
AcDbArc
50
44.999999999999424
51
225.00000000000057
0
ARC
5
523
100
AcDbEntity
8
0
100
AcDbCircle
10
47.55373106198455
20
37.805943557436308
30
0
40
5.0000000000000711
210
0
220
0
230
1
100
AcDbArc
50
180
51
269.9999999999996
0
LWPOLYLINE
5
524
100
AcDbEntity
8
0
100
AcDbPolyline
90
12
70
1
43
0.0
10
636.79069717690049
20
-42.398212448232968
10
648.54805648978117
20
-42.398212448232755
42
-0.41421356237309503
10
651.54805648978129
20
-45.398212448232869
10
651.5480564897814
20
-54.398212448232925
42
-0.41421356237308815
10
648.54805648978129
20
-57.398212448232897
10
636.79069717690049
20
-57.398212448232897
42
0.99999999999999989
10
632.54805648978117
20
-61.640853135352245
10
632.54805648978117
20
-62.398212448232897
10
362.54805648978191
20
-62.398212448233004
10
362.54805648978191
20
-37.398212448233004
10
632.54805648978117
20
-37.398212448232968
10
632.54805648978117
20
-38.155571761113691
42
0.99999999999999989
0
LWPOLYLINE
5
525
100
AcDbEntity
8
0
100
AcDbPolyline
90
12
70
1
43
0.0
10
636.79069717690209
20
-90.299953819902825
10
648.54805648978277
20
-90.29995381990264
42
-0.41421356237309503
10
651.54805648978277
20
-93.299953819902754
10
651.54805648978277
20
-102.29995381990278
42
-0.41421356237309159
10
648.54805648978288
20
-105.29995381990278
10
636.79069717690209
20
-105.29995381990283
42
0.99999999999999989
10
632.54805648978277
20
-109.54259450702207
10
632.54805648978277
20
-110.29995381990278
10
362.54805648978288
20
-110.29995381990287
10
362.54805648978288
20
-85.299953819902896
10
632.54805648978277
20
-85.299953819902825
10
632.54805648978277
20
-86.057313132783548
42
0.99999999999999989
0
LWPOLYLINE
5
526
100
AcDbEntity
8
0
100
AcDbPolyline
90
20
70
1
43
0.0
10
-155.97972811378048
20
1360.0558884387217
10
-155.97972811378048
20
1000.055888438722
10
-166.73708742666133
20
1000.055888438722
42
0.99999999999999989
10
-170.97972811378057
20
995.81324775160283
10
-170.9797281137806
20
986.05588843872181
42
-0.41421356237309503
10
-175.97972811378045
20
981.05588843872192
10
-195.9797281137806
20
981.05588843872192
42
-0.41421356237309503
10
-200.97972811378054
20
986.05588843872192
10
-200.97972811378065
20
995.8132477516026
42
0.99999999999999989
10
-205.22236880089986
20
1000.055888438722
10
-215.97972811378045
20
1000.055888438722
10
-215.97972811378045
20
1360.0558884387217
10
-205.22236880089957
20
1360.0558884387217
42
0.99999999999999989
10
-200.97972811378031
20
1364.298529125841
10
-200.9797281137804
20
1374.0558884387221
42
-0.41421356237308044
10
-195.97972811378037
20
1379.0558884387219
10
-175.9797281137802
20
1379.0558884387215
42
-0.41421356237309293
10
-170.97972811378042
20
1374.0558884387219
10
-170.97972811378042
20
1364.2985291258412
42
0.99999999999999989
10
-166.73708742666108
20
1360.0558884387217
0
LINE
5
527
100
AcDbEntity
8
0
100
AcDbLine
10
-47.949079256034992
20
1000.047413670615
30
0
11
-47.949079256034992
21
1360.0474136706143
31
0
0
LINE
5
528
100
AcDbEntity
8
0
100
AcDbLine
10
-107.94907925603485
20
1360.0474136706143
30
0
11
-107.94907925603485
21
1000.047413670615
31
0
0
ARC
5
529
100
AcDbEntity
8
0
100
AcDbCircle
10
-87.949079256035077
20
986.04741367061501
30
0
40
4.9999999999998934
210
0
220
0
230
1
100
AcDbArc
50
180
51
270
0
ARC
5
530
100
AcDbEntity
8
0
100
AcDbCircle
10
-95.07039959959468
20
997.92609332705536
30
0
40
3.0000000000000444
210
-0
220
0
230
1
100
AcDbArc
50
-45.00000000000076
51
134.99999999999923
0
ARC
5
531
100
AcDbEntity
8
0
100
AcDbCircle
10
-67.949079256034722
20
1374.0474136706143
30
0
40
4.9999999999998401
210
-0
220
0
230
1
100
AcDbArc
50
0
51
89.999999999999844
0
ARC
5
532
100
AcDbEntity
8
0
100
AcDbCircle
10
-95.070399599594396
20
1362.1687340141739
30
0
40
2.9999999999999689
210
0
220
0
230
1
100
AcDbArc
50
-135.00000000000117
51
44.999999999998664
0
LINE
5
533
100
AcDbEntity
8
0
100
AcDbLine
10
-58.706438568915821
20
1000.047413670615
30
0
11
-47.949079256034992
21
1000.047413670615
31
0
0
ARC
5
534
100
AcDbEntity
8
0
100
AcDbCircle
10
-67.949079256034935
20
986.0474136706149
30
0
40
4.9999999999998579
210
-0
220
0
230
1
100
AcDbArc
50
-90
51
0
0
LINE
5
535
100
AcDbEntity
8
0
100
AcDbLine
10
-62.949079256035077
20
986.0474136706149
30
0
11
-62.949079256035027
21
995.80477298349592
31
0
0
ARC
5
536
100
AcDbEntity
8
0
100
AcDbCircle
10
-60.827758912475424
20
997.92609332705547
30
0
40
2.9999999999998432
210
0
220
-0
230
1
100
AcDbArc
50
44.999999999999233
51
224.99999999999923
0
LINE
5
537
100
AcDbEntity
8
0
100
AcDbLine
10
-92.949079256035077
20
995.8047729834957
30
0
11
-92.949079256034963
21
986.04741367061501
31
0
0
LINE
5
538
100
AcDbEntity
8
0
100
AcDbLine
10
-62.949079256034885
20
1364.2900543577334
30
0
11
-62.949079256034885
21
1374.0474136706143
31
0
0
LINE
5
539
100
AcDbEntity
8
0
100
AcDbLine
10
-92.94907925603475
20
1374.0474136706146
30
0
11
-92.94907925603475
21
1364.2900543577334
31
0
0
LINE
5
540
100
AcDbEntity
8
0
100
AcDbLine
10
-67.949079256034707
20
1379.0474136706143
30
0
11
-87.949079256034821
21
1379.0474136706143
31
0
0
LINE
5
541
100
AcDbEntity
8
0
100
AcDbLine
10
-107.94907925603485
20
1000.047413670615
30
0
11
-97.191719943154283
21
1000.047413670615
31
0
0
LINE
5
542
100
AcDbEntity
8
0
100
AcDbLine
10
-97.191719943154027
20
1360.0474136706143
30
0
11
-107.94907925603485
21
1360.0474136706143
31
0
0
LINE
5
543
100
AcDbEntity
8
0
100
AcDbLine
10
-87.949079256035077
20
981.04741367061501
30
0
11
-67.949079256034935
21
981.04741367061501
31
0
0
LINE
5
544
100
AcDbEntity
8
0
100
AcDbLine
10
-47.949079256034992
20
1360.0474136706143
30
0
11
-58.70643856891558
21
1360.0474136706143
31
0
0
ARC
5
545
100
AcDbEntity
8
0
100
AcDbCircle
10
-87.94907925603485
20
1374.0474136706143
30
0
40
5
210
0
220
-0
230
1
100
AcDbArc
50
89.999999999999673
51
180
0
ARC
5
546
100
AcDbEntity
8
0
100
AcDbCircle
10
-60.827758912475247
20
1362.1687340141739
30
0
40
2.9999999999999689
210
0
220
0
230
1
100
AcDbArc
50
135.00000000000125
51
315.00000000000165
0
LINE
5
547
100
AcDbEntity
8
0
100
AcDbLine
10
-5.0306015313039687
20
1304.5765423473749
30
0
11
-5.0306015313039687
21
996.57654234737549
31
0
0
LINE
5
548
100
AcDbEntity
8
0
100
AcDbLine
10
9.9693984686960491
20
1318.5765423473752
30
0
11
9.9693984686960491
21
1308.8191830344942
31
0
0
LINE
5
549
100
AcDbEntity
8
0
100
AcDbLine
10
14.969398468695729
20
977.57654234737572
30
0
11
34.96939846869607
21
977.57654234737572
31
0
0
ARC
5
550
100
AcDbEntity
8
0
100
AcDbCircle
10
42.090718812255723
20
1306.6978626909347
30
0
40
2.9999999999999565
210
0
220
0
230
1
100
AcDbArc
50
135.00000000000105
51
314.99999999999841
0
ARC
5
551
100
AcDbEntity
8
0
100
AcDbCircle
10
42.09071881225556
20
994.45522200381606
30
0
40
2.9999999999999565
210
0
220
-0
230
1
100
AcDbArc
50
44.999999999998941
51
225.0000000000019
0
ARC
5
552
100
AcDbEntity
8
0
100
AcDbCircle
10
7.8480781251360732
20
994.45522200381583
30
0
40
2.9999999999999813
210
0
220
0
230
1
100
AcDbArc
50
-44.999999999998529
51
134.99999999999949
0
ARC
5
553
100
AcDbEntity
8
0
100
AcDbCircle
10
34.969398468696298
20
1318.5765423473752
30
0
40
4.9999999999998401
210
-0
220
0
230
1
100
AcDbArc
50
0
51
90.000000000000171
0
LINE
5
554
100
AcDbEntity
8
0
100
AcDbLine
10
44.212039155815184
20
996.57654234737561
30
0
11
54.969398468695928
21
996.57654234737561
31
0
0
ARC
5
555
100
AcDbEntity
8
0
100
AcDbCircle
10
34.96939846869607
20
982.57654234737561
30
0
40
4.9999999999998579
210
-0
220
0
230
1
100
AcDbArc
50
-90
51
0
0
ARC
5
556
100
AcDbEntity
8
0
100
AcDbCircle
10
7.8480781251364107
20
1306.6978626909347
30
0
40
2.9999999999999689
210
0
220
0
230
1
100
AcDbArc
50
-134.99999999999818
51
44.999999999998749
0
LINE
5
557
100
AcDbEntity
8
0
100
AcDbLine
10
54.969398468695928
20
996.57654234737561
30
0
11
54.969398468695914
21
1304.5765423473749
31
0
0
ARC
5
558
100
AcDbEntity
8
0
100
AcDbCircle
10
14.969398468695729
20
982.57654234737561
30
0
40
4.9999999999999112
210
0
220
0
230
1
100
AcDbArc
50
180
51
270
0
LINE
5
559
100
AcDbEntity
8
0
100
AcDbLine
10
39.969398468695907
20
982.57654234737561
30
0
11
39.969398468695928
21
992.33390166025629
31
0
0
LINE
5
560
100
AcDbEntity
8
0
100
AcDbLine
10
-5.0306015313039687
20
996.57654234737549
30
0
11
5.7267577815764525
21
996.57654234737549
31
0
0
LINE
5
561
100
AcDbEntity
8
0
100
AcDbLine
10
5.7267577815767723
20
1304.5765423473749
30
0
11
-5.0306015313039687
21
1304.5765423473749
31
0
0
LINE
5
562
100
AcDbEntity
8
0
100
AcDbLine
10
34.969398468696284
20
1323.5765423473752
30
0
11
14.969398468695942
21
1323.5765423473752
31
0
0
LINE
5
563
100
AcDbEntity
8
0
100
AcDbLine
10
54.969398468695914
20
1304.5765423473749
30
0
11
44.212039155815376
21
1304.5765423473749
31
0
0
ARC
5
564
100
AcDbEntity
8
0
100
AcDbCircle
10
14.96939846869596
20
1318.5765423473752
30
0
40
5
210
0
220
0
230
1
100
AcDbArc
50
90.000000000000199
51
180
0
LINE
5
565
100
AcDbEntity
8
0
100
AcDbLine
10
39.969398468696099
20
1308.8191830344942
30
0
11
39.969398468696141
21
1318.5765423473752
31
0
0
LINE
5
566
100
AcDbEntity
8
0
100
AcDbLine
10
9.9693984686957293
20
992.33390166025629
30
0
11
9.9693984686958181
21
982.57654234737561
31
0
0
LINE
5
567
100
AcDbEntity
8
0
100
AcDbLine
10
97.498094818810799
20
1305.7809357139126
30
0
11
97.498094818810799
21
997.7809357139131
31
0
0
LINE
5
568
100
AcDbEntity
8
0
100
AcDbLine
10
112.49809481881081
20
1319.7809357139126
30
0
11
112.49809481881081
21
1310.0235764010317
31
0
0
LINE
5
569
100
AcDbEntity
8
0
100
AcDbLine
10
117.49809481881051
20
978.7809357139131
30
0
11
137.49809481881084
21
978.7809357139131
31
0
0
ARC
5
570
100
AcDbEntity
8
0
100
AcDbCircle
10
144.61941516237053
20
1307.9022560574722
30
0
40
2.9999999999999565
210
0
220
0
230
1
100
AcDbArc
50
135.00000000000117
51
315.00000000000153
0
ARC
5
571
100
AcDbEntity
8
0
100
AcDbCircle
10
144.61941516237036
20
995.65961537035355
30
0
40
2.999999999999944
210
0
220
-0
230
1
100
AcDbArc
50
44.999999999999233
51
225.0000000000019
0
ARC
5
572
100
AcDbEntity
8
0
100
AcDbCircle
10
110.37677447525084
20
995.65961537035355
30
0
40
3.0000000000000822
210
0
220
0
230
1
100
AcDbArc
50
-45.000000000001528
51
135.00000000000077
0
ARC
5
573
100
AcDbEntity
8
0
100
AcDbCircle
10
137.49809481881107
20
1319.7809357139126
30
0
40
4.9999999999998579
210
-0
220
0
230
1
100
AcDbArc
50
0
51
90
0
LINE
5
574
100
AcDbEntity
8
0
100
AcDbLine
10
146.74073550592996
20
997.7809357139131
30
0
11
157.49809481881073
21
997.7809357139131
31
0
0
ARC
5
575
100
AcDbEntity
8
0
100
AcDbCircle
10
137.49809481881084
20
983.7809357139131
30
0
40
5
210
-0
220
0
230
1
100
AcDbArc
50
-90
51
0
0
ARC
5
576
100
AcDbEntity
8
0
100
AcDbCircle
10
110.37677447525118
20
1307.9022560574722
30
0
40
2.9999999999999565
210
0
220
0
230
1
100
AcDbArc
50
-135.00000000000117
51
44.999999999998849
0
LINE
5
577
100
AcDbEntity
8
0
100
AcDbLine
10
157.49809481881073
20
997.7809357139131
30
0
11
157.49809481881073
21
1305.7809357139126
31
0
0
ARC
5
578
100
AcDbEntity
8
0
100
AcDbCircle
10
117.49809481881051
20
983.7809357139131
30
0
40
4.9999999999999289
210
0
220
0
230
1
100
AcDbArc
50
180
51
270
0
LINE
5
579
100
AcDbEntity
8
0
100
AcDbLine
10
142.4980948188107
20
983.7809357139131
30
0
11
142.49809481881073
21
993.53829502679378
31
0
0
LINE
5
580
100
AcDbEntity
8
0
100
AcDbLine
10
97.498094818810799
20
997.7809357139131
30
0
11
108.25545413169124
21
997.7809357139131
31
0
0
LINE
5
581
100
AcDbEntity
8
0
100
AcDbLine
10
108.25545413169155
20
1305.7809357139126
30
0
11
97.498094818810799
21
1305.7809357139126
31
0
0
LINE
5
582
100
AcDbEntity
8
0
100
AcDbLine
10
137.49809481881107
20
1324.7809357139126
30
0
11
117.49809481881073
21
1324.7809357139126
31
0
0
LINE
5
583
100
AcDbEntity
8
0
100
AcDbLine
10
157.49809481881073
20
1305.7809357139126
30
0
11
146.74073550593019
21
1305.7809357139126
31
0
0
ARC
5
584
100
AcDbEntity
8
0
100
AcDbCircle
10
117.49809481881074
20
1319.7809357139126
30
0
40
5
210
0
220
0
230
1
100
AcDbArc
50
90.000000000000171
51
180
0
LINE
5
585
100
AcDbEntity
8
0
100
AcDbLine
10
142.4980948188109
20
1310.0235764010317
30
0
11
142.49809481881096
21
1319.7809357139126
31
0
0
LINE
5
586
100
AcDbEntity
8
0
100
AcDbLine
10
112.4980948188105
20
993.53829502679378
30
0
11
112.49809481881059
21
983.7809357139131
31
0
0
LINE
5
587
100
AcDbEntity
8
0
100
AcDbLine
10
311.82156417933066
20
1186.8195905703133
30
0
11
311.82156417933066
21
1177.0622312574326
31
0
0
LINE
5
588
100
AcDbEntity
8
0
100
AcDbLine
10
346.82156417933061
20
1191.8195905703133
30
0
11
316.82156417933066
21
1191.8195905703133
31
0
0
LINE
5
589
100
AcDbEntity
8
0
100
AcDbLine
10
311.82156417933066
20
808.57694988319508
30
0
11
311.82156417933066
21
798.8195905703144
31
0
0
LINE
5
590
100
AcDbEntity
8
0
100
AcDbLine
10
351.82156417933061
20
1177.0622312574326
30
0
11
351.82156417933061
21
1186.8195905703133
31
0
0
LINE
5
591
100
AcDbEntity
8
0
100
AcDbLine
10
361.82156417933049
20
812.81959057031429
30
0
11
361.82156417933049
21
1172.8195905703133
31
0
0
LINE
5
592
100
AcDbEntity
8
0
100
AcDbLine
10
356.06420486644981
20
812.81959057031429
30
0
11
361.82156417933049
21
812.81959057031429
31
0
0
ARC
5
593
100
AcDbEntity
8
0
100
AcDbCircle
10
309.700243835771
20
810.69827022675463
30
0
40
2.9999999999999689
210
0
220
0
230
1
100
AcDbArc
50
-44.999999999998472
51
134.99999999999923
0
LINE
5
594
100
AcDbEntity
8
0
100
AcDbLine
10
361.82156417933049
20
1172.8195905703133
30
0
11
356.06420486644981
21
1172.8195905703133
31
0
0
ARC
5
595
100
AcDbEntity
8
0
100
AcDbCircle
10
309.700243835771
20
1174.9409109138728
30
0
40
2.9999999999999689
210
0
220
0
230
1
100
AcDbArc
50
-135.00000000000077
51
45.000000000001542
0
LINE
5
596
100
AcDbEntity
8
0
100
AcDbLine
10
316.82156417933066
20
793.81959057031452
30
0
11
346.82156417933066
21
793.8195905703144
31
0
0
ARC
5
597
100
AcDbEntity
8
0
100
AcDbCircle
10
353.94288452289015
20
1174.9409109138728
30
0
40
3.0000000000000444
210
0
220
0
230
1
100
AcDbArc
50
134.99999999999696
51
315.00000000000153
0
ARC
5
598
100
AcDbEntity
8
0
100
AcDbCircle
10
353.94288452289015
20
810.69827022675463
30
0
40
2.999999999999944
210
0
220
-0
230
1
100
AcDbArc
50
45
51
225
0
LINE
5
599
100
AcDbEntity
8
0
100
AcDbLine
10
351.82156417933049
20
798.8195905703144
30
0
11
351.82156417933061
21
808.57694988319508
31
0
0
LINE
5
600
100
AcDbEntity
8
0
100
AcDbLine
10
301.82156417933066
20
1172.8195905703133
30
0
11
301.82156417933066
21
812.81959057031429
31
0
0
LINE
5
601
100
AcDbEntity
8
0
100
AcDbLine
10
301.82156417933066
20
812.81959057031429
30
0
11
307.5789234922114
21
812.81959057031429
31
0
0
LINE
5
602
100
AcDbEntity
8
0
100
AcDbLine
10
307.5789234922114
20
1172.8195905703133
30
0
11
301.82156417933066
21
1172.8195905703133
31
0
0
LWPOLYLINE
5
603
100
AcDbEntity
8
0
100
AcDbPolyline
90
20
70
1
43
0.0
10
415.34707034824771
20
1179.544056110153
10
415.34707034824777
20
1189.3014154230334
42
-0.41421356237310752
10
420.34707034824771
20
1194.3014154230336
10
450.3470703482476
20
1194.3014154230336
42
-0.41421356237310752
10
455.34707034824754
20
1189.3014154230336
10
455.3470703482476
20
1179.544056110153
42
0.99999999999999989
10
459.58971103536697
20
1175.3014154230336
10
465.3470703482476
20
1175.3014154230336
10
465.34707034824777
20
815.30141542303431
10
459.58971103536703
20
815.30141542303431
42
0.99999999999999989
10
455.34707034824777
20
811.05877473591488
10
455.34707034824771
20
801.3014154230342
42
-0.41421356237310752
10
450.34707034824777
20
796.3014154230342
10
420.34707034824783
20
796.3014154230342
42
-0.41421356237310752
10
415.34707034824783
20
801.3014154230342
10
415.34707034824783
20
811.05877473591488
42
0.99999999999999989
10
411.10442966112856
20
815.30141542303431
10
405.34707034824783
20
815.30141542303431
10
405.34707034824777
20
1175.3014154230336
10
411.10442966112839
20
1175.3014154230336
42
0.99999999999999989
0
ARC
5
604
100
AcDbEntity
8
0
100
AcDbCircle
10
316.82156417933061
20
1186.8195905703133
30
0
40
5
210
0
220
-0
230
1
100
AcDbArc
50
89.999999999999346
51
180
0
ARC
5
605
100
AcDbEntity
8
0
100
AcDbCircle
10
346.82156417933066
20
1186.8195905703133
30
0
40
4.9999999999999289
210
0
220
0
230
1
100
AcDbArc
50
0
51
90.000000000000654
0
ARC
5
606
100
AcDbEntity
8
0
100
AcDbCircle
10
316.82156417933061
20
798.8195905703144
30
0
40
4.9999999999999289
210
0
220
0
230
1
100
AcDbArc
50
180
51
270.00000000000068
0
ARC
5
607
100
AcDbEntity
8
0
100
AcDbCircle
10
346.82156417933066
20
798.81959057031418
30
0
40
4.9999999999998579
210
0
220
0
230
1
100
AcDbArc
50
-90
51
0
0
ENDSEC
0
SECTION
2
OBJECTS
0
DICTIONARY
5
C
100
AcDbDictionary
3
ACAD_GROUP
350
D
3
ACAD_MLINESTYLE
350
17
0
DICTIONARY
5
D
100
AcDbDictionary
0
DICTIONARY
5
1A
330
C
100
AcDbDictionary
0
DICTIONARY
5
17
100
AcDbDictionary
0
ENDSEC
0
EOF
